Oops, an error
Loading. Please wait.

Looking Out My Back Door bass

version 3
version 3

Whole song

6,058 views 33 this week
no commentswrite comment
1 2 3 4 5
x 6
add to favorites
×
Save as Personal and add changes to this tab that will be seen only by you. Learn more ›
×
You can save this tab as Personal to edit and correct it or add notes. All changes will be seen only by you. Learn more »
launch autoscroll
font size
0
reset
guitar tuner
edit
Autoscroll
slow
fast
+/-
esc
set tempo
stop
Author
Difficulty
Looking Out Of My Back Door
Originally released in 1970 as a B side in UK by Creedence Clearwater Revival.
Original bassist Stu Cook. Tab by bass50611.
Having looked at other bass tabs think you will find this is more or
less correct to the original. Any comments its bass254@btinternet.com

Intro:
G|------------|-------------------------------------------|
D|-NO BASS ON-|-8---8------5---5--------8---------5-7-8---|
A|-FIRST PART-|---8---88-----5---55---6-----8---88------8-|
E|------------|---------------------------6---------------|

Verse:
G|----------------------------------------------------------|
D|-8---8----5-5-5-5---8--------------5-7---8---8----5-5-5-5-|
A|---8---8----------6-----8---8----88--------8---8----------|
E|----------------------6-------8---------------------------|

G|----------------------|
D|---8----------5-7-8---|
A|-6-----8---88-------8-|
E|-----6----------------|

Repeat Verse:

Bridge:
G|-----------------------------------------------|
D|-----------------------------5-------------5-7-|
A|-88888888---6666----------8----5---8-8---88----|
E|-----------------6666---6----------------------|
                                                 Ending 2nd Time:
G|-------------------------------------------|  |--------------|
D|-8---8--8---5---5--5----8----------5-7-8---|  |-----5-7-8--8-|
A|---8---8------5---5---6-----8---88-------8-|  |--88-------8--|
E|--------------------------6----------------|  |--------------|

For Solo Use Verse:

Repeat Bridge:

Break with Guitar & Into Key Change:

Solo 2:
G|---------|------------------------------------------------|
D|-NO Bass-|------------------------5-----------------------|
A|---------|---------5---5----3---3----3-3--------------0-2-|
E|---------|-6-5-4-3---3----1---------------5-5---3-3-33----|

Part Verse:
G|------------------------------------------|
D|---5---5------------3-3---------5----5555-|
A|-3---3------7---7--------3-3------5-------|
E|----------5---5---------------------------|

Half Tempo Bit:                                Outro:
G|-----------------------------------------|  |-------------------|
D|-----------------------------------------|  |-3-3---------------|
A|-3---3-------7---7---8-8---------0-2-3-3-|  |-----3-3---0-2-3-3-|
E|---3---3---5---5--------8-8---33------3--|  |---------33-----3--|
Suggest correction
Creating personal tab
Creating personal tab
You can edit any tab online and save it as your Personal.

You can edit, replace or remove any tab part or add personal notes – all changes will be seen only by you.

Personal tabs can be accessed anytime from any device, even offline.
Learn more »
comments
print report bad tab
guest
You may want to rate the tab now too:
select rating
Wanna post a correction for this tab? Suggest correction