Oops, an error
Loading. Please wait.

Midnight Special tab

version 1
version 1

Whole song

Interactive

29,296 views 27 this week
8 commentsread comments
1 2 3 4 5
x 14
add to favorites
×
Save as Personal and add changes to this tab that will be seen only by you. Learn more ›
×
You can save this tab as Personal to edit and correct it or add notes. All changes will be seen only by you. Learn more »
launch autoscroll
font size
0
reset
how to read this tab
guitar tuner
edit
Autoscroll
slow
fast
+/-
esc
set tempo
stop
-----------------------------------------------------------------------
                MIDNIGHT SPECIAL – Creedence Clearwater Revival
-----------------------------------------------------------------------
Tabbed by: Travis Wong
Email: travis_wong@hotmail.com

4/4 Time, Key of G

Tuning: EADGBe (Standard)

e|--------------------|-----------|-----------------|-----------------|
B|--0-----0-----------|-----------|-----------------|-----------------|
G|-----2-----2--0-----|--2-----0--|--0--0--2--0-----|-----------------|
D|-----------------2--|-----------|--------------2--|--0--------------|
A|--------------------|-----------|-----------------|-----------------|
E|--------------------|-----------|-----------------|-----------------|

e|--------------------|-----------|--------------------|--------------|
B|--------------------|--0--------|--0-----0-----------|--------------|
G|--------------------|--------2--|-----2-----2--0-----|--0-----------|
D|--0--0--2--0--2--0--|-----------|-----------------2--|--------------|
A|--------------------|-----------|--------------------|--------------|
E|--------------------|-----------|--------------------|--------------|

e|--------------------|-----------|--------------------|--------------|
B|--0-----0-----------|-----------|--------------------|--------------|
G|-----2-----2--0-----|--2-----0--|--0--0--2--0--------|--------------|
D|-----------------2--|-----------|--------------2--2--|--0-----------|
A|--------------------|-----------|--------------------|--------------|
E|--------------------|-----------|--------------------|--------------|


e|--------------------|-----------|--------------------|--------------|
B|--------------------|--0--------|--0-----0--3--0-----|-----0-0--0---|
G|--------------------|--------2--|-----2-----------2--|--0----------0|
D|--0--0--2--0--2--0--|-----------|--------------------|--------------|
A|--------------------|-----------|--------------------|--------------|
E|--------------------|-----------|--------------------|--------------|

e|-----------|-----------------|-----------|--------------------------|
B|-----------|-----------------|-----------|--------------------------|
G|--2-----0--|--0—-0--2--0-----|-----------|--------------------------|
D|-----------|--------------2--|--0--------|--0--0---2---0------------|
A|-----------|-----------------|-----------|--------------------------|
E|-----------|-----------------|-----------|--------------------------|

e|-----------|--------------------|-----------------------------------|
B|--0--------|--0--0--0--1--------|-----------------------------------|
G|--------2--|--------------0-----|--0---2—--0~~~~~-------------------|
D|-----------|-----------------2--|-----------------------------------|
A|-----------|--------------------|-----------------------------------|
E|-----------|--------------------|-----------------------------------|

Rinse and repeat, improv if you wish

            
            
Suggest correction
Creating personal tab
Creating personal tab
You can edit any tab online and save it as your Personal.

You can edit, replace or remove any tab part or add personal notes – all changes will be seen only by you.

Personal tabs can be accessed anytime from any device, even offline.
Learn more »
comments
print report bad tab
8 comments total. Showing first comments.
0 reply
majorpain1023 61 Jul 25, 2007 01:27 PM

dude... not sure how you got a 5 stars on this one,you must have voted on yourself, but this doesn't even follow the song, plus there is chorus effect in there.I'm gining you a 1 just to knock it down from a 5. nice try.

0 reply
Fender_Tele'71 10 Jul 25, 2007 08:09 PM

sorry majorpain1023, but it didn't work... i'll give it a try for ya

0 reply
Fender_Tele'71 10 Jul 25, 2007 08:09 PM

their...

guest
You may want to rate the tab now too:
select rating
Wanna post a correction for this tab? Suggest correction