Oops, an error
Loading. Please wait.

Proud Mary Bass Tab

version 2
version 2

Whole song

Interactive

53,371 views 45 this week
no commentswrite comment
1 2 3 4 5
x 3
add to favorites
launch autoscroll
font size
0
reset
guitar tuner
Autoscroll
slow
fast
+/-
esc
set tempo
stop
Help us to improve Ultimate-Guitar.com Take our survey!
×
Author
Difficulty
novice
Okay this is a pretty easy one, but lots of fun to play and it sounds great with a band.
Tabbed By: Nicholas C., 
Bass for Spherical: www.tekcities.com/sphericalband

[Intro]

G|----------------|----------------|----------------|----------------||
D|----------------|----------------|----------------|----------------||
A|-3-3-3----------|-3-3-3----3-3-3-|-----------3----|-5-5---5-5------||
E|--------5-5-3---|-------5-------5|-3-1-1-0h1------|-----5----------||

[Verse] Lick 1: (This is what the actual line is)

G|----------------||
D|----------------||
A|-5-5---5-5---5--|| Repeat Throughout the verse
E|-----5-----5----||

Verse Lick 2: (This makes it sound remotely interesting)

G|----------------|-------5-7-7-7--|-7-7-7-5--------|----------------||
D|----------------|-4-5/7---------7|---------7-5-3--|----------------||
A|-5-5---5-5---5--|----------------|----------------|-3-5------------||
E|-----5-----5----|----------------|----------------|----------------||

[Pre-Chorus] Lick 1: (Two notes this time. This is actually what he plays
also this part is during the big wheels keep on turning part.)

G|----------------|----------------|----------------||
D|---4-5-7-7---7-7|-8-8-9---9------|----------------||
A|-5---------7----|-------9--------|-----5-7-9-5----||
E|----------------|----------------|-5/7------------||

Pre-Chorus Lick 2: (This is what i like to play)

G|----------------|----------------|----------------|----------------||
D|----------------|----------------|-7-5---7---5-7--|----------------||
A|-5-5---5-5-3---3|---3-5----------|-----7---7------|---------5-5-0h5||
E|-----5-------5--|-5-----5-5-5-5--|----------------|-7-7-0h7--------||

G|----------------||
D|----------------||
A|-----5-7-9-5----||
E|-5/7------------||

[Chorus]

G|----------------||
D|----------------||
A|-5-5---5-5---5--||
E|-----5-----5----||

Play the verse licks over the solos and of course the rest of the
verses. Okay so e-mail me at GuitarMan2737@aim with questions or
comments.-The Bass Dude



************************************

| h  Hammer-on
| /  Slide up

************************************
Suggest correction
Give kudos to tab author, rate the tab!
1 2 3 4 5
comments
print report bad tab
guest
You may want to rate the tab now too:
select rating
Wanna post a correction for this tab? Suggest correction