Oops, an error
Loading. Please wait.
We have an official Proud Mary tab made by UG professional guitarists. Check out the tab »
×
5,956 views 381 this week
no commentswrite comment
1 2 3 4 5
3 more votes to show rating
add to favorites
×
Save as Personal and add changes to this tab that will be seen only by you. Learn more ›
×
You can save this tab as Personal to edit and correct it or add notes. All changes will be seen only by you. Learn more »
launch autoscroll
font size
0
reset
how to read this tab
guitar tuner
backing track
0:00
0:00
edit
Autoscroll
slow
fast
+/-
esc
set tempo
stop
Author
Difficulty
PROUD MARY 

As recorded by Creedence Clearwater Revival
(From the 1969 Album BAYOU COUNTRY)

Words and Music by John C. Fogerty

Transcribed by Slowhand


Gtr I (E A D G B E) - 'Tom Fogerty - Electric Guitar'
Gtr II (D G C F A D) - 'John Fogerty - Electric Guitar - One step down: D G C F A D'
Gtr III (D G C F A D) - 'John Fogerty - Electric Guitar - One step down: D G C F A D'


 Intro & Interlude
  Q=126
  $
  C     A             C     A             C     A   G   F
 4/4
  Gtr I
  E E E E +E  E E E   E E E E +E  E E E   E E E E E E E E
|-0-0---0-(0)-0-0---|-0-0---0-(0)-0-0---|-0-0---0-------1--|
|-1-1---2-(2)-2-2-0-|-1-1---2-(2)-2-2-0-|-1-1-0-2---0---1--|
|-0-0-0-2-(2)-2-2-0-|-0-0-0-2-(2)-2-2-0-|-0-0-0-2---0---2--|
|-2-2-0-2-(2)-2-2-0-|-2-2-0-2-(2)-2-2-0-|-2-2-0-2---0---3--|
|-3-----0-(0)---0---|-3-----0-(0)---0---|-3---------2---3--|
|-0-----0-(0)---0---|-0-----0-(0)---0---|-0---------3---1--|
|
| Gtr II (1 step down: D G C F A D)
|                                             PM
| E E E E +E  E E E   E E E E +E  E E E   E E E E E E E E
|-2-2---------2---0-|-2-2---------2---0-|-2-2-----------3--|
|-3-3-3-4-(4)-4-4-0-|-3-3---4-(4)-4-4-0-|-3-3---4---2---0--|
|-2-2-2-4-(4)-4-4---|-2-2---4-(4)-4-4---|-2-2-2-4---2---0--|
|-0-0-0-4-(4)---4---|-0-0---4-(4)---4---|-0-0-0-4---2------|
|-0-----2-(2)-------|-0-----2-(2)-------|-0---0------------|
|-------------------|-------------------|------------------|


                                                          1st  - 3rd Verses
                D                                          D
                         PM      PM        PM      PM          PM      PM
  +E  E E E E E Q    E E E E E E E E   E E E E E E E E     E E E E E E E E
|-(1)-1-1---1---2--|-2-2-2-2-2-2-2-2-|-2-2-2-2-2-2-2-2-||--2-2-2-2-2-2-2-2-|
|-(1)-1-1---1---3--|-3-3-3-3-3-3-3-3-|-3-3-3-3-3-3-3-3-||o-3-3-3-3-3-3-3-3-|
|-(2)-2-2---2---2--|-2-2-2-2-2-2-2-2-|-2-2-2-2-2-2-2-2-||--2-2-2-2-2-2-2-2-|
|-(3)-3-3-0-3---0--|-0-0-0-0-0-0-0-0-|-0-0-0-0-0-0-0-0-||--0-0-0-0-0-0-0-0-|
|-(3)-3-3---3------|-----------------|-----------------||o-----------------|
|-(1)-1-1---1------|-----------------|-----------------||------------------|
|
| +E  E E E E E Q    E E E E E E E E   E E E E E E E E     E E E E E E E E
|-(3)-3-3-0-3---0--|-0-0-0-0---0-0-0-|-0-0-0-0---0-0-0-||--0-0-0-0---0-0-0-|
|-(0)-3-3-0-3---0--|-0-0-2-0---0-0-0-|-0-0-2-0---0-0-0-||o-0-0-2-0---0-0-0-|
|-(0)-0-0---0---1--|-1-1-1-1---1-1-1-|-1-1-1-1---1-1-1-||--1-1-1-1---1-1-1-|
|-----0-0---0---2--|-2-2-2-2---2-2-2-|-2-2-2-2---2-2-2-||--2-2-2-2---2-2-2-|
|---------------2--|-2-2-2-2---2-2-2-|-2-2-2-2---2-2-2-||o-2-2-2-2---2-2-2-|
|-----3-3---3---0--|-0-0-0-0---0-0-0-|-0-0-0-0---0-0-0-||--0-0-0-0---0-0-0-|


      PM      PM        PM      PM        PM      PM        PM      PM
  E E E E E E E E   E E E E E E E E   E E E E E E E E   E E E E E E E E
|-2-2-2-2-2-2-2-2-|-2-2-2-2-2-2-2-2-|-2-2-2-2-2-2-2-2-|-2-2-2-2-2-2-2-2-|
|-3-3-3-3-3-3-3-3-|-3-3-3-3-3-3-3-3-|-3-3-3-3-3-3-3-3-|-3-3-3-3-3-3-3-3-|
|-2-2-2-2-2-2-2-2-|-2-2-2-2-2-2-2-2-|-2-2-2-2-2-2-2-2-|-2-2-2-2-2-2-2-2-|
|-0-0-0-0-0-0-0-0-|-0-0-0-0-0-0-0-0-|-0-0-0-0-0-0-0-0-|-0-0-0-0-0-0-0-0-|
|-----------------|-----------------|-----------------|-----------------|
|-----------------|-----------------|-----------------|-----------------|
|
| E E E E E E E E   E E E E E E E E   E E E E E E E E   E E E E E E E E
|-0-0-0-0---0-0-0-|-0-0-0-0---0-0-0-|-0-0-0-0---0-0-0-|-0-0-0-0---0-0-0-|
|-0-0-2-0---0-0-0-|-0-0-2-0---0-0-0-|-0-0-2-0---0-0-0-|-0-0-2-0---0-0-0-|
|-1-1-1-1---1-1-1-|-1-1-1-1---1-1-1-|-1-1-1-1---1-1-1-|-1-1-1-1---1-1-1-|
|-2-2-2-2---2-2-2-|-2-2-2-2---2-2-2-|-2-2-2-2---2-2-2-|-2-2-2-2---2-2-2-|
|-2-2-2-2---2-2-2-|-2-2-2-2---2-2-2-|-2-2-2-2---2-2-2-|-2-2-2-2---2-2-2-|
|-0-0-0-0---0-0-0-|-0-0-0-0---0-0-0-|-0-0-0-0---0-0-0-|-0-0-0-0---0-0-0-|


                                                        Pre-Chorus
                                                         A
      PM      PM        PM      PM        PM      PM
  E E E E E E E E   E E E E E E E E   E E E E E E E E    E E E E E E E E
|-2-2-2-2-2-2-2-2-|-2-2-2-2-2-2-2-2-|-2-2-2-2-2-2-2-2-||-0-0-0-0-0-0-0-0-|
|-3-3-3-3-3-3-3-3-|-3-3-3-3-3-3-3-3-|-3-3-3-3-3-3-3-3-||-2-2-2-2-2-2-2-2-|
|-2-2-2-2-2-2-2-2-|-2-2-2-2-2-2-2-2-|-2-2-2-2-2-2-2-2-||-2-2-2-2-2-2-2-2-|
|-0-0-0-0-0-0-0-0-|-0-0-0-0-0-0-0-0-|-0-0-0-0-0-0-0-0-||-2-2-2-2-2-2-2-2-|
|-----------------|-----------------|-----------------||-0-0-0-0-0-0-0-0-|
|-----------------|-----------------|-----------------||-0-0-0-0-0-0-0-0-|
|
| E E E E E E E E   E E E E E E E E   E E E E E E E E    E E E E E E E E
|-0-0-0-0---0-0-0-|-0-0-0-0---0-0-0-|-0-0-0-0---0-0-0-||-2-2-x-2-2-2-x-2-|
|-0-0-2-0---0-0-0-|-0-0-2-0---0-0-0-|-0-0-2-0---0-0-0-||-0-0-x-0-0-0-x-0-|
|-1-1-1-1---1-1-1-|-1-1-1-1---1-1-1-|-1-1-1-1---1-1-1-||-2-2-x-2-2-2-x-2-|
|-2-2-2-2---2-2-2-|-2-2-2-2---2-2-2-|-2-2-2-2---2-2-2-||-1-1-x-1-1-1-x-1-|
|-2-2-2-2---2-2-2-|-2-2-2-2---2-2-2-|-2-2-2-2---2-2-2-||-2-2-x-2-2-2-x-2-|
|-0-0-0-0---0-0-0-|-0-0-0-0---0-0-0-|-0-0-0-0---0-0-0-||-----------------|


                    Bm
  E E E E E E E E   E E E E E E E E
|-0-0-0-0-0-0-0---|-2-2-2-2-2-2-2-2-|
|-2-2-2-2-2-2-2---|-3-3-3-3-3-3-3-3-|
|-2-2-2-2-2-2-2---|-4-4-4-4-4-4-4-4-|
|-2-2-2-2-2-2-2-0-|-4-4-4-4-4-4-4-4-|
|-0-0-0-0-0-0-0-0-|-2-2-2-2-2-2-2-2-|
|-0-0-0-0-0-0-0-0-|-2-2-2-2-2-2-2-2-|
|
| E E E E E E E E   E E E E E E E E
|-2-2-x-2-2-2-x---|---4-4-4-4-4-4-4-|
|-0-0-x-0-0-0-x---|---5-5-5-5-5-5-5-|
|-2-2-x-2-2-2-x-0-|---6-6-6-6-6-6-6-|
|-1-1-x-1-1-1-x---|---6-6-6-6-6-6-6-|
|-2-2-x-2-2-2-x---|---4-4-4-4-4-4-4-|
|-----------------|-----------------|


                        Chorus
                         D
                             PM        PM
  E E   E E   E E E E    E E E E  E  E E E
|-2-2---2-2---2-2-2---||-2-2-2-2--2--2-2-2---|
|-3-3---3-3---3-3-3-0-||-3-3-3-3--3--3-3-3---|
|-4-4---4-4---4-4-4-0-||-2-2-2-2--2--2-2-2---|
|-4-4---4-4---4-4-4-0-||-0-0-0-0--0--0-0-0---|
|-2-2---2-2---2-2-2---||---------------------|
|-2-2---2-2---2-2-2---||---------------------|
|
| Gtrs II, III(1 step down)Gtr II
| E S S E E a E E E E    E E E E +E  E E E
|---------------------||-0-0-0-0-(0)-0-0-0---|
|---------------------||-0-0-2-0-(0)-0-0-0---|
|-----------4s6s4S6---||-1-1-1-1-(1)-1-1-1---|
|-------2-4-4s6s4S6---||-2-2-2-2-(2)-2-2-2---|
|---2s4---------------||-2-2-2-2-(2)-2-2-2---|
|---------------------||-0-0-0-0-(0)-0-0-0---|


             To Coda
      PM        PM         PM        PM
  E E E E  E  E E E    E E E E  E  E E   E
|-2-2-2-2--2--2-2-2--|-2-2-2-2--2--2-2---2-|
|-3-3-3-3--3--3-3-3--|-3-3-3-3--3--3-3---3-|
|-2-2-2-2--2--2-2-2--|-2-2-2-2--2--2-2---2-|
|-0-0-0-0--0--0-0-0--|-0-0-0-0--0--0-0---0-|
|--------------------|---------------------|
|--------------------|---------------------|
|
| E E E E +E  E E E    E E E E +E  E E a E
|-0-0-0-0-(0)-0-0-0--|-0-0-0-0-(0)-0-0-2s4-|
|-0-0-2-0-(0)-0-0-0--|-0-0-2-0-(0)-0-0-----|
|-1-1-1-1-(1)-1-1-1--|-1-1-1-1-(1)-1-1-2s4-|
|-2-2-2-2-(2)-2-2-2--|-2-2-2-2-(2)-2-2-----|
|-2-2-2-2-(2)-2-2-2--|-2-2-2-2-(2)-2-2-----|
|-0-0-0-0-(0)-0-0-0--|-0-0-0-0-(0)-0-0-----|
|
| Gtr III
| W                    H        Q    E a E
|--------------------|-----------------2s4-|
|--------------------|---------------------|
|--------------------|-----------------2s4-|
|--------------------|---------------------|
|--------------------|---------------------|
|--------------------|---------------------|


                        Interlude
                         C     A
        PM       PM
   E  E E E  E E E E     E E E E +E  E E E
|--2--2-2-2--2-2-2-2--||-0-0---0-(0)-0-0-----|
|--3--3-3-3--3-3-3-3-o||-1-1---2-(2)-2-2-0---|
|--2--2-2-2--2-2-2-2--||-0-0-0-2-(2)-2-2-0---|
|--0--0-0-0--0-0-0-0--||-2-2-0-2-(2)-2-2-0---|
|--------------------o||-3-----0-(0)---0-----|
|---------------------||-0-----0-(0)---0-----|
|
| +E  E E E  Q   Q       E E E E +E  E E E
|-(4)-4-2-0-/2---0----||-2-2---------2---0---|
|--------------------o||-3-3-3-4-(4)-4-4-0---|
|-(4)-4-2-1-/2---1----||-2-2-2-4-(4)-4-4-----|
|---------------------||-0-0-0-4-(4)---4-----|
|--------------------o||-0-----2-(2)---------|
|---------------------||---------------------|
|
| +E  E E E  Q   Q       E E E E +E  E E E
|-(4)-4-2-0-/2---0----||-2-2-2-2-(2)-2-2-----|
|--------------------o||-3-3-3-4-(4)-4-4-2---|
|-(4)-4-2-1-/2---1----||-2-2-2-4-(4)-4-4-2---|
|---------------------||-4-4-4-4-(4)-4-4-2---|
|--------------------o||-5-5-5-2-(2)-2-2-----|
|---------------------||---------------------|


  C     A             C     A   G   F                 D
                                                               PM      PM
  E E E E +E  E E E   E E E E E E E E   +E  E E E E E Q    E E E E E E E E
|-0-0---0-(0)-0-0---|-0-0---0-------1-|-(1)-1-1---1---2--|-2-2-2-2-2-2-2-2-|
|-1-1---2-(2)-2-2-0-|-1-1-0-2---0---1-|-(1)-1-1---1---3--|-3-3-3-3-3-3-3-3-|
|-0-0-0-2-(2)-2-2-0-|-0-0-0-2---0---2-|-(2)-2-2---2---2--|-2-2-2-2-2-2-2-2-|
|-2-2-0-2-(2)-2-2-0-|-2-2-0-2---0---3-|-(3)-3-3-0-3---0--|-0-0-0-0-0-0-0-0-|
|-3-----0-(0)---0---|-3---------2---3-|-(3)-3-3---3------|-----------------|
|-0-----0-(0)---0---|-0---------3---1-|-(1)-1-1---1------|-----------------|
|
|                         PM
| E E E E +E  E E E   E E E E E E E E   +E  E E E E E Q    E E E E E E E E
|-2-2---------2---0-|-2-2-----------3-|-(3)-3-3-0-3---0--|-0-0-0-0---0-0-0-|
|-3-3---4-(4)-4-4-0-|-3-3---4---2---0-|-(0)-3-3-0-3---0--|-0-0-2-0---0-0-0-|
|-2-2---4-(4)-4-4---|-2-2-2-4---2---0-|-(0)-0-0---0---1--|-1-1-1-1---1-1-1-|
|-0-0---4-(4)---4---|-0-0-0-4---2-----|-----0-0---0---2--|-2-2-2-2---2-2-2-|
|-0-----2-(2)-------|-0---0-----------|---------------2--|-2-2-2-2---2-2-2-|
|-------------------|-----------------|-----3-3---3---0--|-0-0-0-0---0-0-0-|


                    Guitar Solo
                       D
      PM      PM             PM           PM
  E E E E E E E E       E E  E E  E  E    E E
|-2-2-2-2-2-2-2-2-||----2-2--2-2--2--2----2-2-|
|-3-3-3-3-3-3-3-3-||----3-3--3-3--3--3----3-3-|
|-2-2-2-2-2-2-2-2-||----2-2--2-2--2--2----2-2-|
|-0-0-0-0-0-0-0-0-||----0-0--0-0--0--0----0-0-|
|-----------------||--------------------------|
|-----------------||--------------------------|
|
|                 Gtrs II, III
| E E E E E E E E    a  E E  E E +E  E a  E E
|-0-0-0-0---0-0-0-||--------------------------|
|-0-0-2-0---0-0-0-||-------------------9h10-9-|
|-1-1-1-1---1-1-1-||-----------9-(9)-9----9-9-|
|-2-2-2-2---2-2-2-||------9-11-9-(9)-9-9h11-9-|
|-2-2-2-2---2-2-2-||-9s11---------------------|
|-0-0-0-0---0-0-0-||--------------------------|


           PM            PM            PM            PM
   E  E    E E    E E    E E      E E  E E  E  E     E E
|--2--2----2-2----2-2----2-2-|----2-2--2-2--2--2-----2-2---|
|--3--3----3-3----3-3----3-3-|----3-3--3-3--3--3-----3-3---|
|--2--2----2-2----2-2----2-2-|----2-2--2-2--2--2-----2-2---|
|--0--0----0-0----0-0----0-0-|----0-0--0-0--0--0-----0-0---|
|----------------------------|-----------------------------|
|----------------------------|-----------------------------|
|
| +E  E a  E E a  E E a  E E   a  E E  E E +E  E  a  E E
|----------------------------|-----------------------------|
|-(9)-9-9h10-9-9h10-9-9h10-9-|-9h10-9-10-9-(9)-------------|
|-(9)-9----9-9----9-9----9-9-|----9-9--9-9-(9)-9-------9---|
|-(9)-9-9h11-9-9h11-9-9h11-9-|-9h11-9-11-9-(9)-9-----9-9---|
|----------------------------|-------------------10s11-----|
|----------------------------|-----------------------------|


              PM                PM
   E   E      E      E     E E  E E
|--2---2------2------2-----2-2--2-2-|
|--3---3------3------3-----3-3--3-3-|
|--2---2------2------2-----2-2--2-2-|
|--0---0------0------0-----0-0--0-0-|
|-----------------------------------|
|-----------------------------------|
|
| +E   S  S  +S   S  E  a  E E  E E
|-----------------------------------|
|-----10s12-(12)-12-12-12s10--------|
|-(9)-11s13-(13)----13-13s11-9------|
|-(9)--------------------------11-9-|
|-----------------------------------|
|-----------------------------------|


          PM           PM             PM         PM
     E E  E E  E  E    E E    E  E    E E  E  E  E E
|----2-2--2-2--2--2----2-2-|--2--2----2-2--2--2--2-2--|
|----3-3--3-3--3--3----3-3-|--3--3----3-3--3--3--3-3--|
|----2-2--2-2--2--2----2-2-|--2--2----2-2--2--2--2-2--|
|----0-0--0-0--0--0----0-0-|--0--0----0-0--0--0--0-0--|
|--------------------------|--------------------------|
|--------------------------|--------------------------|
|
| a  E E  E E +E  E a  E E   +E  E a  E E +E  E  E E
|--------------------------|--------------------------|
|-------------------9h10-9-|-(9)---9h10-9-(9)---10-9--|
|------9--9-9-(9)-9----9-9-|-(9)-9----9-9-(9)-9--9-9--|
|------9-11-9-(9)-9-9h11-9-|-(9)-9-9h11-9-(9)-9-11-9--|
|-9s11---------------------|--------------------------|
|--------------------------|--------------------------|


         PM       PM              PM        PM
   E   E E E E  E E  E     E   E  E E  E  E E E
|--2---2-2-2-2--2-2--2-|---2---2--2-2--2--2-2-2-|
|--3---3-3-3-3--3-3--3-|---3---3--3-3--3--3-3-3-|
|--2---2-2-2-2--2-2--2-|---2---2--2-2--2--2-2-2-|
|--0---0-0-0-0--0-0--0-|---0---0--0-0--0--0-0-0-|
|----------------------|------------------------|
|----------------------|------------------------|
|
| +E   E E E E  E E  E    +E   E  E E +H
|----------------------|------------0-(0)-------|
|-(9)------9-----------|------------0-(0)-------|
|-(9)------9---------9-|--(9)--9\---1-(1)-------|
|-(9)--9---9----9----9-|--(9)--9\---2-(2)-------|
|-----11-------11---11-|-(11)-11\---------------|
|----------------------|------------------------|


  A
  E   E E E E   E E E   E   E E E E    E  E  E
|-0---0-0-0-0---0-0-0-|-0---0-0-0-0----0--0----|
|-2---2-2-2-2---2-2-2-|-2---2-2-2-2----2--2----|
|-2---2-2-2-2---2-2-2-|-2---2-2-2-2----2--2----|
|-2---2-2-2-2---2-2-2-|-2---2-2-2-2----2--2--0-|
|-0---0-0-0-0---0-0-0-|-0---0-0-0-0----0--0--0-|
|-0---0-0-0-0---0-0-0-|-0---0-0-0-0----0--0--0-|
|
| PM  PM    PM  PM      PM  PM
| S S E E E S S E E E   S S E E E S E.   +E  E
|---------------------|------------------------|
|---------2---4---4-5-|---4---4-2---4----(4)---|
|---4---4-------------|------------------------|
|-----4-----4---4-----|-4---4-----4------------|
|-2-------------------|------------------------|
|---------------------|------------------------|


                                                     Chorus
  Bm                                                  D
                                                          PM        PM
  E   E E E   E   E E E     E   E E E   E   E E  E    E E E E  E  E E E
|-2---2-2-2---2---2-2-2---|-2---2-2-2---2---2-2----||-2-2-2-2--2--2-2-2-|
|-3---3-3-3---3---3-3-3---|-3---3-3-3---3---3-3--0-||-3-3-3-3--3--3-3-3-|
|-4---4-4-4---4---4-4-4---|-4---4-4-4---4---4-4--0-||-2-2-2-2--2--2-2-2-|
|-4---4-4-4---4---4-4-4---|-4---4-4-4---4---4-4--0-||-0-0-0-0--0--0-0-0-|
|-2---2-2-2---2---2-2-2---|-2---2-2-2---2---2-2----||-------------------|
|-2---2-2-2---2---2-2-2---|-2---2-2-2---2---2-2----||-------------------|
|
|                                                  Gtr II
| W                         W                         E E E E +E  E E E
|-------------------------|------------------------||-0-0-0-0-(0)-0-0-0-|
|-------------------------|------------------------||-0-0-2-0-(0)-0-0-0-|
|-------------------------|------------------------||-1-1-1-1-(1)-1-1-1-|
|-------------------------|------------------------||-2-2-2-2-(2)-2-2-2-|
|-------------------------|------------------------||-2-2-2-2-(2)-2-2-2-|
|-------------------------|------------------------||-0-0-0-0-(0)-0-0-0-|
|
| Gtrs II, III                                     Gtr III
| PM  PM      PM    PM  PM--|   PM----------|
| S S E E S S S S E E S S   S S E E S S S S E Q       W
|-------------------------|------------------------||-------------------|
|---------4-----5---5-7---|---5---5-5-----5---5\---||-------------------|
|---6---6-----------------|------------------------||-------------------|
|-----6-----6-----6-------|-----------6------------||-------------------|
|-4-----------4-----4---4-|-4---4-4-4---4---4------||-------------------|
|-------------------------|------------------------||-------------------|


                                                   D.S. al Coda
      PM        PM
  E E E E  E  E E E   E E E E  E  E E   E    E  E E E  E E E E
|-2-2-2-2--2--2-2-2-|-2-2---2--2--2-----2-|--2--2---2--2-2---2---||
|-3-3-3-3--3--3-3-3-|-3-3---3--3--3-----3-|--3--3---3--3-3---3---||
|-2-2-2-2--2--2-2-2-|-2-2---2--2--2-----2-|--2--2---2--2-2---2---||
|-0-0-0-0--0--0-0-0-|-0-0---0--0--0-----0-|--0--0---0--0-0---0---||
|-------------------|---------------------|----------------------||
|-------------------|---------------------|----------------------||
|
| E E E E +E  E E E   E E E E +E  E E a E   +E  E E E  Q   Q
|-0-0-0-0-(0)-0-0-0-|-0-0-0-0-(0)-0-0-2s4-|-(4)-4-2-0-/2---0-----||
|-0-0-2-0-(0)-0-0-0-|-0-0-2-0-(0)-0-0-----|----------------------||
|-1-1-1-1-(1)-1-1-1-|-1-1-1-1-(1)-1-1-2s4-|-(4)-4-2-1-/2---1-----||
|-2-2-2-2-(2)-2-2-2-|-2-2-2-2-(2)-2-2-----|----------------------||
|-2-2-2-2-(2)-2-2-2-|-2-2-2-2-(2)-2-2-----|----------------------||
|-0-0-0-0-(0)-0-0-0-|-0-0-0-0-(0)-0-0-----|----------------------||
|
| W                   H        Q    E a E   +E  E E E  Q   Q
|-------------------|-----------------2s4-|-(4)-4-2-0-/2---0-----||
|-------------------|---------------------|----------------------||
|-------------------|-----------------2s4-|-(4)-4-2-1-/2---1-----||
|-------------------|---------------------|----------------------||
|-------------------|---------------------|----------------------||
|-------------------|---------------------|----------------------||


                                             Outro
  &
  D                                           D
      PM        PM            PM       PM         PM        PM
  E E E E  E  E E   E    E  E E E  E E E E    E E E E  E  E E E
|-2-2-2-2--2--2-2---2-|--2--2-2-2--2-2-2-2-||-2-2-2-2--2--2-2-2-|
|-3-3-3-3--3--3-3---3-|--3--3-3-3--3-3-3-3-||-3-3-3-3--3--3-3-3-|
|-2-2-2-2--2--2-2---2-|--2--2-2-2--2-2-2-2-||-2-2-2-2--2--2-2-2-|
|-0-0-0-0--0--0-0---0-|--0--0-0-0--0-0-0-0-||-0-0-0-0--0--0-0-0-|
|---------------------|--------------------||-------------------|
|---------------------|--------------------||-------------------|
|
| Gtr II
| E E E E +E  E E a E   +E  E E E  Q   Q      E E E E +E  E E E
|-0-0-0-0-(0)-0-0-2s4-|-(4)-4-2-0-/2---0---||-0-0-0-0-(0)-0-0-0-|
|-0-0-2-0-(0)-0-0-----|--------------------||-0-0-2-0-(0)-0-0-0-|
|-1-1-1-1-(1)-1-1-2s4-|-(4)-4-2-1-/2---1---||-1-1-1-1-(1)-1-1-1-|
|-2-2-2-2-(2)-2-2-----|--------------------||-2-2-2-2-(2)-2-2-2-|
|-2-2-2-2-(2)-2-2-----|--------------------||-2-2-2-2-(2)-2-2-2-|
|-0-0-0-0-(0)-0-0-----|--------------------||-0-0-0-0-(0)-0-0-0-|
|
| Gtr III
| H        Q    E a E   +E  E E E  Q   Q      W
|-----------------2s4-|-(4)-4-2-0-/2---0---||-------------------|
|---------------------|--------------------||-------------------|
|-----------------2s4-|-(4)-4-2-1-/2---1---||-------------------|
|---------------------|--------------------||-------------------|
|---------------------|--------------------||-------------------|
|---------------------|--------------------||-------------------|


      PM        PM        PM        PM            PM       PM
  E E E E  E  E E E   E E E E  E  E E   E    E  E E E  E E E E
|-2-2-2-2--2--2-2-2-|-2-2-2-2--2--2-2---2-|--2--2-2-2--2-2-2-2-|
|-3-3-3-3--3--3-3-3-|-3-3-3-3--3--3-3---3-|--3--3-3-3--3-3-3-3-|
|-2-2-2-2--2--2-2-2-|-2-2-2-2--2--2-2---2-|--2--2-2-2--2-2-2-2-|
|-0-0-0-0--0--0-0-0-|-0-0-0-0--0--0-0---0-|--0--0-0-0--0-0-0-0-|
|-------------------|---------------------|--------------------|
|-------------------|---------------------|--------------------|
|
| E E E E +E  E E E   E E E E +E  E E a E   +E  E E E  Q   Q
|-0-0-0-0-(0)-0-0-0-|-0-0-0-0-(0)-0-0-2s4-|-(4)-4-2-0-/2---0---|
|-0-0-2-0-(0)-0-0-0-|-0-0-2-0-(0)-0-0-----|--------------------|
|-1-1-1-1-(1)-1-1-1-|-1-1-1-1-(1)-1-1-2s4-|-(4)-4-2-1-/2---1---|
|-2-2-2-2-(2)-2-2-2-|-2-2-2-2-(2)-2-2-----|--------------------|
|-2-2-2-2-(2)-2-2-2-|-2-2-2-2-(2)-2-2-----|--------------------|
|-0-0-0-0-(0)-0-0-0-|-0-0-0-0-(0)-0-0-----|--------------------|
|
| W                   H        Q    E a E   +E  E E E  Q   Q
|-------------------|-----------------2s4-|-(4)-4-2-0-/2---0---|
|-------------------|---------------------|--------------------|
|-------------------|-----------------2s4-|-(4)-4-2-1-/2---1---|
|-------------------|---------------------|--------------------|
|-------------------|---------------------|--------------------|
|-------------------|---------------------|--------------------|


      PM        PM        PM        PM
  E E E E  E  E E E   E E E E  E  E E E
|-2-2-2-2--2--2-2-2-|-2-2-2-2--2--2-2-2-|
|-3-3-3-3--3--3-3-3-|-3-3-3-3--3--3-3-3-|
|-2-2-2-2--2--2-2-2-|-2-2-2-2--2--2-2-2-|
|-0-0-0-0--0--0-0-0-|-0-0-0-0--0--0-0-0-|
|-------------------|-------------------|
|-------------------|-------------------|
|
| E E E E +E  E E E   E E E E +E  E E E
|-0-0-0-0-(0)-0-0-0-|-0-0-0-0-(0)-0-0-0-|
|-0-0-2-0-(0)-0-0-0-|-0-0-2-0-(0)-0-0-0-|
|-1-1-1-1-(1)-1-1-1-|-1-1-1-1-(1)-1-1-1-|
|-2-2-2-2-(2)-2-2-2-|-2-2-2-2-(2)-2-2-2-|
|-2-2-2-2-(2)-2-2-2-|-2-2-2-2-(2)-2-2-2-|
|-0-0-0-0-(0)-0-0-0-|-0-0-0-0-(0)-0-0-0-|
|
| W                   W
|-------------------|-------------------|
|-------------------|-------------------|
|-------------------|-------------------|
|-------------------|-------------------|
|-------------------|-------------------|
|-------------------|-------------------|


      PM        PM            PM       PM
  E E E E  E  E E   E    E  E E E  E E E E
|-2-2-2-2--2--2-2---2-|--2--2-2-2--2-2-2-2-|
|-3-3-3-3--3--3-3---3-|--3--3-3-3--3-3-3-3-|
|-2-2-2-2--2--2-2---2-|--2--2-2-2--2-2-2-2-|
|-0-0-0-0--0--0-0---0-|--0--0-0-0--0-0-0-0-|
|---------------------|--------------------|
|---------------------|--------------------|
|
| E E E E +E  E E a E   +E  E E E  Q   Q
|-0-0-0-0-(0)-0-0-2s4-|-(4)-4-2-0-/2---0---|
|-0-0-2-0-(0)-0-0-----|--------------------|
|-1-1-1-1-(1)-1-1-2s4-|-(4)-4-2-1-/2---1---|
|-2-2-2-2-(2)-2-2-----|--------------------|
|-2-2-2-2-(2)-2-2-----|--------------------|
|-0-0-0-0-(0)-0-0-----|--------------------|
|
| H        Q    E a E   +E  E E E  Q   Q
|-----------------2s4-|-(4)-4-2-0-/2---0---|
|---------------------|--------------------|
|-----------------2s4-|-(4)-4-2-1-/2---1---|
|---------------------|--------------------|
|---------------------|--------------------|
|---------------------|--------------------|


      PM        PM        PM        PM
  E E E E  E  E E E   E E E E  E  E E E
|-2-2-2-2--2--2-2-2-|-2-2-2-2--2--2-2-2-|
|-3-3-3-3--3--3-3-3-|-3-3-3-3--3--3-3-3-|
|-2-2-2-2--2--2-2-2-|-2-2-2-2--2--2-2-2-|
|-0-0-0-0--0--0-0-0-|-0-0-0-0--0--0-0-0-|
|-------------------|-------------------|
|-------------------|-------------------|
|
| E E E E +E  E E E   E E E E +E  E E E
|-0-0-0-0-(0)-0-0-0-|-0-0-0-0-(0)-0-0-0-|
|-0-0-2-0-(0)-0-0-0-|-0-0-2-0-(0)-0-0-0-|
|-1-1-1-1-(1)-1-1-1-|-1-1-1-1-(1)-1-1-1-|
|-2-2-2-2-(2)-2-2-2-|-2-2-2-2-(2)-2-2-2-|
|-2-2-2-2-(2)-2-2-2-|-2-2-2-2-(2)-2-2-2-|
|-0-0-0-0-(0)-0-0-0-|-0-0-0-0-(0)-0-0-0-|
|
| W                   W
|-------------------|-------------------|
|-------------------|-------------------|
|-------------------|-------------------|
|-------------------|-------------------|
|-------------------|-------------------|
|-------------------|-------------------|


      PM        PM            PM       PM
  E E E E  E  E E   E    E  E E E  E E E E
|-2-2-2-2--2--2-2---2-|--2--2-2-2--2-2-2-2-*|
|-3-3-3-3--3--3-3---3-|--3--3-3-3--3-3-3-3-*|
|-2-2-2-2--2--2-2---2-|--2--2-2-2--2-2-2-2-*|
|-0-0-0-0--0--0-0---0-|--0--0-0-0--0-0-0-0-*|
|---------------------|--------------------*|
|---------------------|--------------------*|
|
| E E E E +E  E E a E   +E  E E E  Q   Q
|-0-0-0-0-(0)-0-0-2s4-|-(4)-4-2-0-/2---0---*|
|-0-0-2-0-(0)-0-0-----|--------------------*|
|-1-1-1-1-(1)-1-1-2s4-|-(4)-4-2-1-/2---1---*|
|-2-2-2-2-(2)-2-2-----|--------------------*|
|-2-2-2-2-(2)-2-2-----|--------------------*|
|-0-0-0-0-(0)-0-0-----|--------------------*|
|
| H        Q    E a E   +E  E E E  Q   Q
|-----------------2s4-|-(4)-4-2-0-/2---0---*|
|---------------------|--------------------*|
|-----------------2s4-|-(4)-4-2-1-/2---1---*|
|---------------------|--------------------*|
|---------------------|--------------------*|
|---------------------|--------------------*|


Duration Legend
---------------
W - whole; H - half; Q - quarter; E - 8th; S - 16th; T - 32nd; X - 64th; a - acciaccatura
+ - note tied to previous; . - note dotted; .. - note double dotted
Uncapitalized letters represent notes that are staccato (1/2 duration)
Irregular groupings are notated above the duration line
Duration letters will always appear directly above the note/fret number it represents the
duration for.  Duration letters with no fret number below them represent rests.  Multi-
bar rests are notated in the form Wxn, where n is the number of bars to rest for.  Low
melody durations appear below the staff

Tablature Legend
----------------
 h   - hammer-on
 p   - pull-off
 b   - bend
 pb  - pre-bend
 r   - bend release (if no number after the r, then release immediately)
 /\  - slide into or out of (from/to "nowhere")
 s   - legato slide
 S   - shift slide
  - natural harmonic
[n]  - artificial harmonic
n(n) - tapped harmonic
 ~   - vibrato
 tr  - trill
 T   - tap
 TP  - trem. picking
 PM  - palm muting
\n/  - tremolo bar dip; n = amount to dip
 \n  - tremolo bar down
 n/  - tremolo bar up
/n\  - tremolo bar inverted dip
 =   - hold bend; also acts as connecting device for hammers/pulls
 <>  - volume swell (louder/softer)
 x   - on rhythm slash represents muted slash
 o   - on rhythm slash represents single note slash

Misc Legend
-----------
 |  - bar
||  - double bar
||o - repeat start
o|| - repeat end
*|  - double bar (ending)
 :  - bar (freetime)
 $  - Segno
 &  - Coda
Tempo markers -  = BPM(8/16=s8/s16), where s8 = swing 8ths, s16 = swing 16ths

            
            
Suggest correction
Creating personal tab
Creating personal tab
You can edit any tab online and save it as your Personal.

You can edit, replace or remove any tab part or add personal notes – all changes will be seen only by you.

Personal tabs can be accessed anytime from any device, even offline.
Learn more »
Give kudos to tab author, rate the tab!
1 2 3 4 5
comments
print report bad tab
guest
You may want to rate the tab now too:
select rating
Wanna post a correction for this tab? Suggest correction