Oops, an error
Loading. Please wait.

Suzie Q bass

version 1
version 1

Whole song

  • This is from the original recording. The timing sp... Show more

Interactive

13,964 views 24 this week
2 commentsread comments
1 2 3 4 5
x 9
add to favorites
×
Save as Personal and add changes to this tab that will be seen only by you. Learn more ›
×
You can save this tab as Personal to edit and correct it or add notes. All changes will be seen only by you. Learn more »
launch autoscroll
font size
0
reset
guitar tuner
edit
Autoscroll
slow
fast
+/-
esc
set tempo
stop
Author
Difficulty
                          Suzie Q by CCR


   E-----0-------------------------------------b3----0-|
   A----------------------------------0-h-2------------|
   D----------------------------2-2----------0---------|
   G-----------7------2-----0--------------------------|


   (Suzie Q, baby I love you, Suzie Q)

   E--------------------------------------------------|
   A---0-0-0-0--3-3-2-2-------------------------------|
   D--------------------------------------------------|
   G--------------------------------------------------|


   h= hammer on
   b= bend

            
            
Suggest correction
Creating personal tab
Creating personal tab
You can edit any tab online and save it as your Personal.

You can edit, replace or remove any tab part or add personal notes – all changes will be seen only by you.

Personal tabs can be accessed anytime from any device, even offline.
Learn more »
comments
print report bad tab
2 comments total.
+1 reply
loveproof 257 Dec 11, 2014 07:28 AM

Why tabling with reversed strings ??? :(

0 reply
jfc790462 10 Sep 20, 2017 10:58 PM

Um upside down:(

guest
You may want to rate the tab now too:
select rating
Wanna post a correction for this tab? Suggest correction