Oops, an error
Loading. Please wait.

Up Around The Bend Tab

version 1
version 1
73,533 views 171 this week
1 commentread comment
1 2 3 4 5
accurate
x 4
add to favorites
launch autoscroll
font size
0
reset
how to read this tab
guitar tuner
Autoscroll
slow
fast
+/-
esc
set tempo
stop
Help us to improve Ultimate-Guitar.com Take our survey!
×
Author
Difficulty
Tabbed by: Skynyrd Fan24/7
Note: This is my first tab, and anyone can help
me out by commenting on it so i know how i did.
Tuning: Regular


[Main Riff]

                                            (repeat)
e|----------10------------------------10-----------------------5---------------|
B|--------------10-----10-----------------10------10---------------5---5-------|
G|----9/11---------11----------9/11-----------11---------4/6---------6---------|
D|-0------------------------0--------------------------------------------------|
A|-----------------------------------------------------0-----------------------|
E|-----------------------------------------------------------------------------|


[Verse]

                                    (repeat)
e|-----------------------------------------------------------------------------|
B|---------3------3------3------3------------------------3---------------------|
G|----2-4----2-4----2-4----2-4-----------2------2-------2---2h4----------------|
D|--0--------------------------------2-4----2-4----2-4-------------------------|
A|---------------------------------0-------------------------------------------|
E|-----------------------------------------------------------------------------|


[Chorus]

        G        D                 A                                                     
                      (repeat)
e|-----3-3---2-2-2-0----------------------------------------------------------|
B|-----0-0---3-3-3-0---2-2-2-2-2-2-2-2----------------------------------------|
G|-----0-0---2-2-2-0---2-2-2-2-2-2-2-2----------------------------------------|
D|-----0-0---0-0-0-0---2-2-2-2-2-2-2-2----------------------------------------|
A|-----2-2--------------0-0-0-0-0-0-0-0---------------------------------------|
E|-----3-3--------------------------------------------------------------------|

[Verse]

[Chorus]

[Verse]

[Chorus]

[Main Riff]


[Solo]

                                   (repeat)
e|---------------------------0-------------------------------------------------|
B|-------3-5b7-5p3-------------------------------------------------------------|
G|-0-2/4-----------4-2--4b6---6b4-2--------------------------------------------|
D|-----------------------------------------------------------------------------|
A|-----------------------------------------------------------------------------|
E|-----------------------------------------------------------------------------|

[Verse]

[Chorus]

[Main Riff]
 
************************************

| h  Hammer-on
| p  Pull-off
| b  Bend
| /  Slide up

************************************
Suggest correction
comments
print report bad tab
1 comment total.
0 reply
|Guitarhead| 258 wrote on May 24 2008, 05:43 am

Quite good! You got the intro perfect, and the chords are right (but 1 too many d chords I think), and the verse is almost perfect (I think there's hammer on's in there) The solo you tabbed is right.

Other than all that, the only thing thats a bit wrong is the timing.
Well done anyway!

guest
You may want to rate the tab now too:
select rating
Wanna post a correction for this tab? Suggest correction