Oops, an error
Loading. Please wait.

Wholl Stop The Rain Chords

version 1
version 1

Whole song

Interactive

635,040 views 1,704 this week
10 commentsread comments
1 2 3 4 5
excellent!
x 411
add to favorites
launch autoscroll
font size
0
reset
transpose
0
reset
display chords
guitar tuner
Autoscroll
slow
fast
+/-
esc
set tempo
stop
Help us to improve Ultimate-Guitar.com Take our survey!
×
Creedence Clearwater Revival
Who'll stop the rain
Tab by Aleksi Hahko
Standard tuning


[Intro]

(G and Em played in the background)

e|-------3-------3-----------3-------3----------3-------3----------|
B|-----0-------0-----------0-------0----------0-------0------------|
G|---0-------0-----------0-------0----------0-------0--------------|
D|------------------------------------0----------------------------|
A|-----------------------------------------------------------------|
E|-3-------3--------2-0--------0----------3-------3----------------|

(If you don't have an another guitar backing you up in the intro 
(I don't) just play the single notes in the E-string and G)


[Verse 1]

G                  C                    G
Long as I remember the rain been comin' down
G                         C                G
Clouds of mystery pourin' confusion on the ground
  
C                    G
Good men through the ages 
C                  G
Tryin' to find the sun
C            D
And I wonder still I wonder
Em                      G
Who'll stop the rain


[Verse 2]

G                            C                G
I went down Virginia seeking shelter from the storm
G                Bm      C                 G
Caught up in the fable I watched the tower grow  

C                   G
Five-year plans and new deals
C                 G
Wrapped in golden chains
C             D
And I wonder, still I wonder
Em                      G
Who'll stop the rain


[Instrumental]

G D   Am C Em   D G


[Verse 3]

G                          C                  G
Heard the singers playin', how we cheered for more
    G                  Bm           C             G
The crowd had rushed together, just tryin to keep warm

C                   G
Still the rain kept pourin'
C            G
Fallin on my ears
C             D
And I wonder, still I wonder
Em
Who'll stop the rain...


[Outro]

e|-------3-------3-----------3-------3----------3-------3----------|
B|-----0-------0-----------0-------0----------0-------0------------|
G|---0-------0-----------0-------0----------0-------0--------------|
D|------------------------------------0----------------------------|
A|-----------------------------------------------------------------|
E|-3-------3--------2-0--------0----------3-------3----------------|

 (repeat pattern until fadeout)
comments
print report bad tab
10 comments total. Showing first comments. show 1 bad comment
+10 reply
kansas89 13 wrote on December 12 2008, 11:45 am

Very good, only two little corrections:

Intro:

E|-----------3---
B|-----0---------
G|--------0------
D|---------------
A|---------------
E|--3------------ etc...

Break:

C-G-D Am-C-Em D-G

+4 reply
tdog90210 16 wrote on January 21 2009, 11:28 pm

love that song, nice tab

I want to post or [tab]
guest
You may want to rate the tab now too:
select rating
Please do not post tabs as comments. Select "correction" instead!