Oops, an error
Loading. Please wait.

Black Mass Bass Tab

247 views 6 this week
no commentswrite comment
1 2 3 4 5
3 more votes to show rating
add to favorites
launch autoscroll
font size
0
reset
guitar tuner
Autoscroll
slow
fast
+/-
esc
set tempo
stop
Help us to improve Ultimate-Guitar.com Take our survey!
×
Author
Difficulty
intermediate
[Intro]

G|-------------------------------------------------|-------------------------------------------|
D|-------------------------------------------------|-------------------------------------------|
A|-------------3--3--3-3-3-----------3-4--4--4-4-4-|-------------3--3--3-3-3-------------------|x2
E|-4--4--4-4-4-------------1--1--1-1---------------|-4--4--4-4-4-------------1-1-1-1-1-1-1-1---|


[Verse]
Same as intro

G|-------------------------------------------------|-------------------------------------------|
D|-------------------------------------------------|-------------------------------------------|
A|-------------3--3--3-3-3-----------3-4--4--4-4-4-|-------------3--3--3-3-3-------------------|x2
E|-4--4--4-4-4-------------1--1--1-1---------------|-4--4--4-4-4-------------1-1-1-1-1-1-1-1---|

[Prechorus]

G|---------------------------------------------------------------------------|
D|---------------------------------------------------------------------------|
A|------------------3-3-3-3-3~-----------------------------------------------|
E|--4-4-4-4-4-4-4-4----------------------------------------------------------|

[Chorus]

G|---------------------------------------------------------------------------|
D|---------------------------------------------------------------------------|
A|-4-4-4-4-4-4-4-4-6-6-6-6-6-6-6-6-------------------------------------------|
E|--------------------------------4-4-4-4-4-4-3-1-1-1-1-1-1-1-1-1------------|

G|---------------------------------------------------------------------------|
D|---------------------------------------------------------------------------|
A|-4-4-4-4-4-4-4-4-6~--------------------------------------------------------|
E|---------------------------------------------------------------------------|


[Verse]
Same as intro & first verse

G|-------------------------------------------------|-------------------------------------------|
D|-------------------------------------------------|-------------------------------------------|
A|-------------3--3--3-3-3-----------3-4--4--4-4-4-|-------------3--3--3-3-3-------------------|x3
E|-4--4--4-4-4-------------1--1--1-1---------------|-4--4--4-4-4-------------1-1-1-1-1-1-1-1---|

[Prechorus]

G|---------------------------------------------------------------------------|
D|---------------------------------------------------------------------------|
A|------------------3-3-3-3-3~-----------------------------------------------|
E|--4-4-4-4-4-4-4-4----------------------------------------------------------|

[Chorus]

G|---------------------------------------------------------------------------|
D|---------------------------------------------------------------------------|
A|-4-4-4-4-4-4-4-4-6-6-6-6-6-6-6-6-------------------------------------------|
E|--------------------------------4-4-4-4-4-4-3-1-1-1-1-1-1-1-1-1------------|

G|---------------------------------------------------------------------------|
D|---------------------------------------------------------------------------|
A|-4-4-4-4-4-4-4-4-6-6-6-6-6~------------------------------------------------|
E|---------------------------------------------------------------------------|


[Bridge]

G|---------------------------------------------------------------------------|
D|---------------------------------------------------------------------------|
A|-------------------------4-4-4-4-4-4-6~------------------------------------|
E|-4-4-4-4-4-4-1-1-1-1-1-1---------------------------------------------------|

G|---------------------------------------------------------------------------|
D|---------------------------------------------------------------------------|
A|-------------------------4-4-4-4-4-4-6-6-6-6-6-6---------------------------|x2
E|-4-4-4-4-4-4-1-1-1-1-1-1---------------------------------------------------|

G|--------------------------------------------------|------------------------|
D|--------------------------------------------------|------------------------|
A|-4-4-4-4-4-4-6-6-6-6-6-6--------------------------|-4-4-4-4-4-4-6~---------|
E|-------------------------4-4-4-4-3-3-1-1-1-1-1-1--|------------------------|

G|---------------------------------------------------------------------------|
D|---------------------------------------------------------------------------|
A|---------------------------------------------------------------------------|
E|-4-4-4-4-4-4-4-4-4-4-4-4-4-4-4-4-4-4-4-4-4-4-4-4-4-4-4-4-4--4~-------------|

[Chorus]

G|---------------------------------------------------------------------------|
D|---------------------------------------------------------------------------|
A|-4-4-4-4-4-4-4-4-6-6-6-6-6-6-6-6-------------------------------------------|
E|--------------------------------4-4-4-4-4-4-3-1-1-1-1-1-1-1-1-1------------|

G|---------------------------------------------------------------------------|
D|---------------------------------------------------------------------------|
A|-4-4-4-4-4-4-4-4-6-6-6-6-6~------------------------------------------------|
E|---------------------------------------------------------------------------|

************************************
Suggest correction
Give kudos to tab author, rate the tab!
1 2 3 4 5
comments
print report bad tab
guest
You may want to rate the tab now too:
select rating
Wanna post a correction for this tab? Suggest correction