Oops, an error
Loading. Please wait.

Gloom tab

by Creeper
766 views 3 this week
5 commentsread comments
1 2 3 4 5
x 7
add to favorites
×
Save as Personal and add changes to this tab that will be seen only by you. Learn more ›
×
You can save this tab as Personal to edit and correct it or add notes. All changes will be seen only by you. Learn more »
launch autoscroll
font size
0
reset
how to read this tab
guitar tuner
edit
Autoscroll
slow
fast
+/-
esc
set tempo
stop
Author
Difficulty
Gloom by Creeper
Standard Tuning

[Intro]
Both Guitars
e|---------------------------------------------------------------------------|
B|---------------------------------------------------------------------------|
G|-----------------6-6-6-6-6-6-6-6-3-3-3-6-4-4-4-4---------------------------|
D|-X-X-X-X-4-4-4-4-6-6-6-6-6-6-6-6-3-3-3-6-4-4-4-4---------------------------|
A|-X-X-X-X-4-4-4-4-4-4-4-4-4-4-4-4-1-1-1-4-2-2-2-2---------------------------|
E|-X-X-X-X-2-2-2-2-----------------------------------------------------------|

e|---------------------------------------------------------------------------|
B|---------------------------------------------------------------------------|
G|---------6-6-6-6-6-6-6-6-8-8-8-6-4-4-4-4-----------------------------------|
D|-4-4-4-4-6-6-6-6-6-6-6-6-8-8-8-6-4-4-4-4-----------------------------------|
A|-4-4-4-4-4-4-4-4-4-4-4-4-6-6-6-4-2-2-2-2-----------------------------------|
E|-2-2-2-2-------------------------------------------------------------------|


[Verse]
Both Guitars
e|---------------------------------------------------------------------------|
B|---------------------------------------------------------------------------|
G|-11-11-11-11-11-11-11-11-6-6-6-6-6-6-6-6-3-3-3-6-4-4-4-4-------------------|
D|-11-11-11-11-11-11-11-11-6-6-6-6-6-6-6-6-3-3-3-6-4-4-4-4-------------------|
A|-9--9--9--9--9--9--9--9--4-4-4-4-4-4-4-4-1-1-1-4-2-2-2-2-------------------|
E|---------------------------------------------------------------------------|

e|---------------------------------------------------------------------------|
B|---------------------------------------------------------------------------|
G|-11-11-11-11-11-11-11-11-6-6-6-6-6-6-6-6-3-3-3-6-4-4-4-4-------------------|
D|-11-11-11-11-11-11-11-11-6-6-6-6-6-6-6-6-3-3-3-6-4-4-4-4-------------------|
A|-9--9--9--9--9--9--9--9--4-4-4-4-4-4-4-4-1-1-1-4-2-2-2-2-------------------|
E|---------------------------------------------------------------------------|


[Pre-Chorus]
Both Guitars                                           PM-----------|
e|---------------------------------------------------------------------------|
B|---------------------------------------------------------------------------|
G|---------4---------------------------------4-------------------------------|
D|-6-------4-------4----------------6--------4---------4-4-4-4-4-4-4--4-4----|
A|-6-------2-------4----------------6--------2---------4-4-4-4-4-4-4--4-4----|
E|-4---------------2----------------4------------------2-2-2-2-2-2-2--2-2----|
                                                         * * * * * *   

[Chorus]
Guitar 1
e|---------------------------------------------------------------------------|
B|---------------------------------------------------------------------------|
G|-----------------4-4-4-4-4-4-4-4-------------------------------------------|
D|-6-6-6-6-6-6-6-6-4-4-4-4-4-4-4-4-4-4-4-4-4-4-4-4-4-4-4-4-4-4-4-4-----------| 
A|-6-6-6-6-6-6-6-6-2-2-2-2-2-2-2-2-4-4-4-4-4-4-4-4-4-4-4-4-4-4-4-4-----------|
E|-4-4-4-4-4-4-4-4-----------------2-2-2-2-2-2-2-2-2-2-2-2-2-2-2-2-----------|

e|---------------------------------------------------------------------------|
B|---------------------------------------------------------------------------|
G|-----------------4-4-4-4-4-4-4-4-------------------------------------------|
D|-6-6-6-6-6-6-6-6-4-4-4-4-4-4-4-4-4-4-4-4-4-4-4-4-4-4-4-4-4-4-4-4-----------| 
A|-6-6-6-6-6-6-6-6-2-2-2-2-2-2-2-2-4-4-4-4-4-4-4-4-4-4-4-4-4-4-4-4-----------|
E|-4-4-4-4-4-4-4-4-----------------2-2-2-2-2-2-2-2-2-2-2-2-2-2-2-2-----------|

Guitar 2
e|---------------------------------------------------------------------------|
B|---------4---------------7-----------------11-------------11---------------|
G|-----4-------4-------8------8---------11-------11-----11------11-----------|
D|-6----------------9--------------11----------------11----------------------|
A|---------------------------------------------------------------------------|
E|---------------------------------------------------------------------------|

e|---------------------------------------------------------------------------|
B|---------4---------------7-----------------11-------------11---------------|
G|-----4-------4-------8------8---------11-------11-----11------11-----------|
D|-6----------------9--------------11----------------11----------------------|
A|---------------------------------------------------------------------------|
E|---------------------------------------------------------------------------|


[Post-Chorus]
Both Guitars
e|---------------------------------------------------------------------------|
B|---------------------------------------------------------------------------|
G|-----------------6-6-6-6-6-6-6-6-3-3-3-6-4-4-4-4---------------------------|
D|-4-4-4-4-4-4-4-4-6-6-6-6-6-6-6-6-3-3-3-6-4-4-4-4---------------------------|
A|-4-4-4-4-4-4-4-4-4-4-4-4-4-4-4-4-1-1-1-4-2-2-2-2---------------------------|
E|-2-2-2-2-2-2-2-2-----------------------------------------------------------|

e|---------------------------------------------------------------------------|
B|---------------------------------------------------------------------------|
G|-----------------6-6-6-6-6-6-6-6-8-8-8-6-4-4-4-4---------------------------|
D|-4-4-4-4-4-4-4-4-6-6-6-6-6-6-6-6-8-8-8-6-4-4-4-4---------------------------|
A|-4-4-4-4-4-4-4-4-4-4-4-4-4-4-4-4-6-6-6-4-2-2-2-2---------------------------|
E|-2-2-2-2-2-2-2-2-----------------------------------------------------------|


[Verse 2]
Both Guitars
e|---------------------------------------------------------------------------|
B|---------------------------------------------------------------------------|
G|-11-11-11-11-11-11-11-11-6-6-6-6-6-6-6-6-3-3-3-6-4-4-4-4-------------------|
D|-11-11-11-11-11-11-11-11-6-6-6-6-6-6-6-6-3-3-3-6-4-4-4-4-------------------|
A|-9--9--9--9--9--9--9--9--4-4-4-4-4-4-4-4-1-1-1-4-2-2-2-2-------------------|
E|---------------------------------------------------------------------------|

e|---------------------------------------------------------------------------|
B|---------------------------------------------------------------------------|
G|-11-11-11-11-11-11-11-11-6-6-6-6-6-6-6-6-8-8-8-6-4-4-4-4-------------------|
D|-11-11-11-11-11-11-11-11-6-6-6-6-6-6-6-6-8-8-8-6-4-4-4-4-------------------|
A|-9--9--9--9--9--9--9--9--4-4-4-4-4-4-4-4-1-1-1-4-2-2-2-2-------------------|
E|---------------------------------------------------------------------------|


[Pre-Chorus]
Both Guitars                                           PM-----------|
e|---------------------------------------------------------------------------|
B|---------------------------------------------------------------------------|
G|---------4---------------------------------4-------------------------------|
D|-6-------4-------4----------------6--------4---------4-4-4-4-4-4-4--4-4----|
A|-6-------2-------4----------------6--------2---------4-4-4-4-4-4-4--4-4----|
E|-4---------------2----------------4------------------2-2-2-2-2-2-2--2-2----|
                                                         * * * * * *   

[Chorus]
Guitar 1
e|---------------------------------------------------------------------------|
B|---------------------------------------------------------------------------|
G|-----------------4-4-4-4-4-4-4-4-------------------------------------------|
D|-6-6-6-6-6-6-6-6-4-4-4-4-4-4-4-4-4-4-4-4-4-4-4-4-4-4-4-4-4-4-4-4-----------| 
A|-6-6-6-6-6-6-6-6-2-2-2-2-2-2-2-2-4-4-4-4-4-4-4-4-4-4-4-4-4-4-4-4-----------|
E|-4-4-4-4-4-4-4-4-----------------2-2-2-2-2-2-2-2-2-2-2-2-2-2-2-2-----------|

e|---------------------------------------------------------------------------|
B|---------------------------------------------------------------------------|
G|-----------------4-4-4-4-4-4-4-4-------------------------------------------|
D|-6-6-6-6-6-6-6-6-4-4-4-4-4-4-4-4-4-4-4-4-4-4-4-4-4-4-4-4-4-4-4-4-----------| X2
A|-6-6-6-6-6-6-6-6-2-2-2-2-2-2-2-2-4-4-4-4-4-4-4-4-4-4-4-4-4-4-4-4-----------|
E|-4-4-4-4-4-4-4-4-----------------2-2-2-2-2-2-2-2-2-2-2-2-2-2-2-2-----------|

Guitar 2
e|---------------------------------------------------------------------------|
B|---------4---------------7-----------------11-------------11---------------|
G|-----4-------4-------8------8---------11-------11-----11------11-----------|
D|-6----------------9--------------11----------------11----------------------|
A|---------------------------------------------------------------------------|
E|---------------------------------------------------------------------------|

e|---------------------------------------------------------------------------|
B|---------4---------------7-----------------11-------------11---------------|
G|-----4-------4-------8------8---------11-------11-----11------11-----------|
D|-6----------------9--------------11----------------11----------------------| X2
A|---------------------------------------------------------------------------|
E|---------------------------------------------------------------------------|


[Solo]
Guitar 2
e|------------------------------------------------------------------------------------------|
B|------------------------------12b14-12b14-10----------14--12--11-----11-----14-12--11--7--|
G|---------------------------------------------12-11-11-------------13-----13---------------|
D|-----7-9-7-9b11-9b11-7--------------------------------------------------------------------|
A|-7-9-------------------9-7-7--------------------------------------------------------------|
E|------------------------------------------------------------------------------------------|

e|---9--9--9--9--9--9--9--9---11--11--11--11--11--11--11--11--13--13--13--13--13--13--13--13|
B|-11-11-11-11-11-11-11-11--12--12--12--12--12--12--12--12--14--14--14--14--14--14--14--14--|
G|------------------------------------------------------------------------------------------|
D|------------------------------------------------------------------------------------------|
A|------------------------------------------------------------------------------------------|
E|------------------------------------------------------------------------------------------|

e|-11-11-11-11-11-11-11-11-13-13-13-13-13-13-13-13-14-14-14-14-14-14-14-14---|
B|---------------------------------------------------------------------------|
G|---------------------------------------------------------------------------|
D|---------------------------------------------------------------------------|
A|---------------------------------------------------------------------------|
E|---------------------------------------------------------------------------|
                                                                              Tremolo pick these 2 lines 
e|-14-16-16-16-16-16-16-16-16-18\--------------------------------------------|
B|---------------------------------------------------------------------------|
G|---------------------------------------------------------------------------|
D|---------------------------------------------------------------------------|
A|---------------------------------------------------------------------------|
E|---------------------------------------------------------------------------|
       
Guitar 1
e|---------------------------------------------------------------------------|
B|---------------------------------------------------------------------------|
G|-----------------6-6-6-6-6-6-6-6-3-3-3-6-4-4-4-4---------------------------|
D|-4-4-4-4-4-4-4-4-6-6-6-6-6-6-6-6-3-3-3-6-4-4-4-4---------------------------|
A|-4-4-4-4-4-4-4-4-4-4-4-4-4-4-4-4-1-1-1-4-2-2-2-2---------------------------|
E|-2-2-2-2-2-2-2-2-----------------------------------------------------------|

e|---------------------------------------------------------------------------|
B|---------------------------------------------------------------------------|
G|-----------------6-6-6-6-6-6-6-6-8-8-8-6-4-4-4-4---------------------------|
D|-4-4-4-4-4-4-4-4-6-6-6-6-6-6-6-6-8-8-8-6-4-4-4-4---------------------------|
A|-4-4-4-4-4-4-4-4-4-4-4-4-4-4-4-4-6-6-6-4-2-2-2-2---------------------------|
E|-2-2-2-2-2-2-2-2-----------------------------------------------------------|

e|---------------------------------------------------------------------------|
B|---------------------------------------------------------------------------|
G|-4-4-4-4-4-4-4-4-6-6-6-6-6-6-6-6-8-8-8-8-8-8-8-8---------------------------|
D|-4-4-4-4-4-4-4-4-6-6-6-6-6-6-6-6-8-8-8-8-8-8-8-8---------------------------|
A|-2-2-2-2-2-2-2-2-4-4-4-4-4-4-4-4-6-6-6-6-6-6-6-6---------------------------|
E|---------------------------------------------------------------------------|

e|---------------------------------------------------------------------------|
B|---------------------------------------------------------------------------|
G|-4-4-4-4-4-4-4-4-6-6-6-6-6-6-6-6-8-8-8-8-8-8-8-8-9-9-9-9-9-9-9-9-----------|
D|-4-4-4-4-4-4-4-4-6-6-6-6-6-6-6-6-8-8-8-8-8-8-8-8-9-9-9-9-9-9-9-9-4---------| play these notes fast
A|-2-2-2-2-2-2-2-2-4-4-4-4-4-4-4-4-6-6-6-6-6-6-6-6-7-7-7-7-7-7-7-7-4---------|
E|-----------------------------------------------------------------2---------|


[Bridge]
Guitar 1
PM----------------------------------------------------------------|
e|---------------------------------------------------------------------------|
B|---------------------------------------------------------------------------|
G|-----------------6-6-6-6-6-6-6-6-8-8-8-8-8-8-8-8-4-4-4-4-4-4-4-4-----------|
D|-4-4-4-4-4-4-4-4-6-6-6-6-6-6-6-6-8-8-8-8-8-8-8-8-4-4-4-4-4-4-4-4-----------| X2
A|-4-4-4-4-4-4-4-4-4-4-4-4-4-4-4-4-6-6-6-6-6-6-6-6-2-2-2-2-2-2-2-2-----------|
E|-2-2-2-2-2-2-2-2-----------------------------------------------------------|

Guitar 2 second time through on Guitar 1's part 
e|---------------------------------------------------------------------------|
B|---------------------------------------------------------------------------|
G|-----------------6-6-------------8-8--------------4-4----------------------|
D|-4-4-------------6-6-------------8-8--------------4-4----------------------|
A|-4-4-------------4-4-------------6-6--------------2-2----------------------|
E|-2-2-----------------------------------------------------------------------|

Both Guitars 
e|---------------------------------------------------------------------------|
B|---------------------------------------------------------------------------|
G|-4------------------------6-6-6-6-6-6-6-6-8-8-8-8-8-8-8-8-4-4-4-4-4-4-4-4--|
D|-4--------4-4-4-4-4-4-4-4-6-6-6-6-6-6-6-6-8-8-8-8-8-8-8-8-4-4-4-4-4-4-4-4--|
A|-2--------4-4-4-4-4-4-4-4-4-4-4-4-4-4-4-4-6-6-6-6-6-6-6-6-2-2-2-2-2-2-2-2--|
E|----------2-2-2-2-2-2-2-2--------------------------------------------------|

e|---------------------------------------------------------------------------|
B|---------------------------------------------------------------------------|
G|-----------------6-6-6-6-6-6-6-6-8-8-8-8-8-8-8-8-4-4-4-4-4-4-4-4-----------|
D|-4-4-4-4-4-4-4-4-6-6-6-6-6-6-6-6-8-8-8-8-8-8-8-8-4-4-4-4-4-4-4-4-----------|
A|-4-4-4-4-4-4-4-4-4-4-4-4-4-4-4-4-6-6-6-6-6-6-6-6-2-2-2-2-2-2-2-2-----------|
E|-2-2-2-2-2-2-2-2-----------------------------------------------------------|

[Pre-Chorus]
Both Guitars                                           PM-----------|
e|---------------------------------------------------------------------------|
B|---------------------------------------------------------------------------|
G|---------4---------------------------------4-------------------------------|
D|-6-------4-------4----------------6--------4---------4-4-4-4-4-4-4--4-4----|
A|-6-------2-------4----------------6--------2---------4-4-4-4-4-4-4--4-4----|
E|-4---------------2----------------4------------------2-2-2-2-2-2-2--2-2----|
                                                         * * * * * *   

[Chorus]
Guitar 1
e|---------------------------------------------------------------------------|
B|---------------------------------------------------------------------------|
G|-----------------4-4-4-4-4-4-4-4-------------------------------------------|
D|-6-6-6-6-6-6-6-6-4-4-4-4-4-4-4-4-4-4-4-4-4-4-4-4-4-4-4-4-4-4-4-4-----------| 
A|-6-6-6-6-6-6-6-6-2-2-2-2-2-2-2-2-4-4-4-4-4-4-4-4-4-4-4-4-4-4-4-4-----------|
E|-4-4-4-4-4-4-4-4-----------------2-2-2-2-2-2-2-2-2-2-2-2-2-2-2-2-----------|

e|---------------------------------------------------------------------------|
B|---------------------------------------------------------------------------|
G|-----------------4-4-4-4-4-4-4-4-------------------------------------------|
D|-6-6-6-6-6-6-6-6-4-4-4-4-4-4-4-4-4-4-4-4-4-4-4-4-4-4-4-4-4-4-4-4-----------| 
A|-6-6-6-6-6-6-6-6-2-2-2-2-2-2-2-2-4-4-4-4-4-4-4-4-4-4-4-4-4-4-4-4-----------|
E|-4-4-4-4-4-4-4-4-----------------2-2-2-2-2-2-2-2-2-2-2-2-2-2-2-2-----------|

Guitar 2
e|---------------------------------------------------------------------------|
B|---------4---------------7-----------------11-------------11---------------|
G|-----4-------4-------8------8---------11-------11-----11------11-----------|
D|-6----------------9--------------11----------------11----------------------|
A|---------------------------------------------------------------------------|
E|---------------------------------------------------------------------------|

e|---------------------------------------------------------------------------|
B|---------4---------------7-----------------11-------------11---------------|
G|-----4-------4-------8------8---------11-------11-----11------11-----------|
D|-6----------------9--------------11----------------11----------------------|
A|---------------------------------------------------------------------------|
E|---------------------------------------------------------------------------|


[Outro]
Guitar 1
e|---------------------------------------------------------------------------|
B|---------------------------------------------------------------------------|
G|------------------4--------------------------------------------------------|
D|-6----------------4--------------4-----------------------------------------| X2
A|-6----------------2--------------4-----------------------------------------|
E|-4-------------------------------2-----------------------------------------|

e|---------------------------------------------------------------------------|
B|-4----------------7-------------11-----------------------------------------|
G|-4----------------8-------------11-----------------------------------------|
D|-6----------------9-------------11-----------------------------------------|X2
A|---------------------------------------------------------------------------|
E|---------------------------------------------------------------------------|


************************************

| x   Dead note
| b   Bend
| \   Slide down
| PM  Palm mute

************************************

            
            
Suggest correction
Creating personal tab
Creating personal tab
You can edit any tab online and save it as your Personal.

You can edit, replace or remove any tab part or add personal notes – all changes will be seen only by you.

Personal tabs can be accessed anytime from any device, even offline.
Learn more »
comments
print report bad tab
5 comments total. Showing first comments.
0 reply
GlitchShade 32 Jan 27, 2017 10:33 PM

you put and 881 instead of 331

0 reply
GlitchShade 32 Jan 27, 2017 10:34 PM

on the 4th measure

0 reply
Gartholemu 16 Aug 04, 2017 05:15 PM, edited at 11:52 pm

This tab sounds spot on but I think it was probably recorded/played half a step down like the rest of the EP.

guest
You may want to rate the tab now too:
select rating
Wanna post a correction for this tab? Suggest correction