Oops, an error
Loading. Please wait.

Hiding With Boys tab

by Creeper
904 views 27 this week
2 commentsread comments
1 2 3 4 5
x 3
add to favorites
×
Save as Personal and add changes to this tab that will be seen only by you. Learn more ›
×
You can save this tab as Personal to edit and correct it or add notes. All changes will be seen only by you. Learn more »
launch autoscroll
font size
0
reset
how to read this tab
guitar tuner
edit
Autoscroll
slow
fast
+/-
esc
set tempo
stop
About this tab version
For one guitar, includes chords. Was this info helpful? Yes No
Let me know what Creeper song you want tabbed next :) Chords are written as the sound they make not the shape
they are on the fretboard because it's half a step down - transpose up one for that. Keep in mind this song 
is for two guitars, but it sounds fine on one.


[Intro]

   Eb              Eb      C#5     Cm              Cm      Bb
D#|---------------|---------------|---------------|---------------|
A#|9-9-9-9-9-9-9-9|9-9-9-9--------|5-5-5-5-5-5-5-5|5-5-5-5--------|
F#|9-9-9-9-9-9-9-9|9-9-9-9-7-7-7-7|6-6-6-6-6-6-6-6|6-6-6-6-8-8-8-8|
C#|9-9-9-9-9-9-9-9|9-9-9-9-7-7-7-7|6-6-6-6-6-6-6-6|6-6-6-6-9-9-9-9|
G#|7-7-7-7-7-7-7-7|7-7-7-7-5-5-5-5|4-4-4-4-4-4-4-4|4-4-4-4-9-9-9-9|
D#|---------------|---------------|---------------|--------7-7-7-7|

   Eb              F5          G5          F5                      Bb
D#|---------------|-----------------------|-----------------------|---------------|
A#|9-9-9-9-9-9-9-9|-----------------------|-----------------------|---------------|
F#|9-9-9-9-9-9-9-9|11-11-11-11-13-13-13-13|11-11-11-11-11-11-11-11|8--------------|
C#|9-9-9-9-9-9-9-9|11-11-11-11-13-13-13-13|11-11-11-11-11-11-11-11|9--------------|
G#|7-7-7-7-7-7-7-7|9--9--9--9--11-11-11-11|9--9--9--9--9--9--9--9-|9--------------|
D#|---------------|-----------------------|-----------------------|7--------------|


[Verse 1]

   Eb              Eb                Cm              Bb
D#|---------------|-----------------|---------------|---------------|
A#|9-9-9-9-9-9-9-9|9-9-9-9-------9-9|5-5-5-5-5-5-5-5|---------------|
F#|9-9-9-9-9-9-9-9|9-9-9-9-9--9--9-9|6-6-6-6-6-6-6-6|8-8-8-8-8-8-8-8|
C#|9-9-9-9-9-9-9-9|9-9-9-9-11-11-9-9|6-6-6-6-6-6-6-6|9-9-9-9-9-9-9-9|
G#|7-7-7-7-7-7-7-7|7-7-7-7-7--7--7-7|4-4-4-4-4-4-4-4|9-9-9-9-9-9-9-9|
D#|---------------|-----------------|---------------|7-7-7-7-7-7-7-7|

   Eb              Eb                Cm              Bb
D#|---------------|-----------------|---------------|---------------|
A#|9-9-9-9-9-9-9-9|9-9-9-9-------9-9|5-5-5-5-5-5-5-5|---------------|
F#|9-9-9-9-9-9-9-9|9-9-9-9-9--9--9-9|6-6-6-6-6-6-6-6|8-8-8-8-8-8-8-8|
C#|9-9-9-9-9-9-9-9|9-9-9-9-11-11-9-9|6-6-6-6-6-6-6-6|9-9-9-9-9-9-9-9|
G#|7-7-7-7-7-7-7-7|7-7-7-7-7--7--7-7|4-4-4-4-4-4-4-4|9-9-9-9-9-9-9-9|
D#|---------------|-----------------|---------------|7-7-7-7-7-7-7-7|

   Ab              Ab              Ab
D#|---------------|---------------|---------------|
A#|---------------|---------------|---------------|
F#|6-6-6-6-6-6-6-6|6-6-6-6-6-6-6-6|6--------------|
C#|7-7-7-7-7-7-7-7|7-7-7-7-7-7-7-7|7--------------|
G#|7-7-7-7-7-7-7-7|7-7-7-7-7-7-7-7|7--------------|
D#|5-5-5-5-5-5-5-5|5-5-5-5-5-5-5-5|5--------------|

[Chorus 1]

   Eb              Eb              Cm              Cm
D#|---------------|---------------|---------------|---------------|
A#|9-9-9-9-9-9-9-9|9-9-9-9-9-9-9-9|5-5-5-5-5-5-5-5|5-5-5-5-5-5-5-5|
F#|9-9-9-9-9-9-9-9|9-9-9-9-9-9-9-9|6-6-6-6-6-6-6-6|6-6-6-6-6-6-6-6|
C#|9-9-9-9-9-9-9-9|9-9-9-9-9-9-9-9|6-6-6-6-6-6-6-6|6-6-6-6-6-6-6-6|
G#|7-7-7-7-7-7-7-7|7-7-7-7-7-7-7-7|4-4-4-4-4-4-4-4|4-4-4-4-4-4-4-4|
D#|---------------|---------------|---------------|---------------|

   Ab               Ab               Eb                Bb
D#|---------------|---------------|---------------|---------------|
A#|---------------|---------------|---------------|---------------|
F#|6-6-6-6-6-6-6-6|6-6-6-6-6-6-6-6|---------------|--8-8-8-8-8-8-8|
C#|7-7-7-7-7-7-7-7|7-7-7-7-7-7-7-7|----6-6-------6|--9-9-9-9-9-9-9|
G#|7-7-7-7-7-7-7-7|7-7-7-7-7-7-7-7|7-7---------7--|--9-9-9-9-9-9-9|
D#|5-5-5-5-5-5-5-5|5-5-5-5-5-5-5-5|0-0---------0--|--7-7-7-7-7-7-7|

[Verse 2]

   Eb              Eb                Cm              Bb
D#|---------------|-----------------|---------------|---------------|
A#|9-9-9-9-9-9-9-9|9-9-9-9-------9-9|5-5-5-5-5-5-5-5|---------------|
F#|9-9-9-9-9-9-9-9|9-9-9-9-9--9--9-9|6-6-6-6-6-6-6-6|8-8-8-8-8-8-8-8|
C#|9-9-9-9-9-9-9-9|9-9-9-9-11-11-9-9|6-6-6-6-6-6-6-6|9-9-9-9-9-9-9-9|
G#|7-7-7-7-7-7-7-7|7-7-7-7-7--7--7-7|4-4-4-4-4-4-4-4|9-9-9-9-9-9-9-9|
D#|---------------|-----------------|---------------|7-7-7-7-7-7-7-7|

   Eb              Eb                Cm              Bb
D#|---------------|-----------------|---------------|---------------|
A#|9-9-9-9-9-9-9-9|9-9-9-9-------9-9|5-5-5-5-5-5-5-5|---------------|
F#|9-9-9-9-9-9-9-9|9-9-9-9-9--9--9-9|6-6-6-6-6-6-6-6|8-8-8-8-8-8-8-8|
C#|9-9-9-9-9-9-9-9|9-9-9-9-11-11-9-9|6-6-6-6-6-6-6-6|9-9-9-9-9-9-9-9|
G#|7-7-7-7-7-7-7-7|7-7-7-7-7--7--7-7|4-4-4-4-4-4-4-4|9-9-9-9-9-9-9-9|
D#|---------------|-----------------|---------------|7-7-7-7-7-7-7-7|

   Ab              Ab              Ab              Ab
D#|---------------|---------------|---------------|---------------|
A#|---------------|---------------|---------------|---------------|
F#|6-6-6-6-6-6-6-6|6-6-6-6-6-6-6-6|6-6-6-6-6-6-6-6|6--------------|
C#|7-7-7-7-7-7-7-7|7-7-7-7-7-7-7-7|7-7-7-7-7-7-7-7|7--------------|
G#|7-7-7-7-7-7-7-7|7-7-7-7-7-7-7-7|7-7-7-7-7-7-7-7|7--------------|
D#|5-5-5-5-5-5-5-5|5-5-5-5-5-5-5-5|5-5-5-5-5-5-5-5|5--------------|

[Chorus 2]

   Eb              Eb              Cm              Cm
D#|---------------|---------------|---------------|---------------|
A#|9-9-9-9-9-9-9-9|9-9-9-9-9-9-9-9|5-5-5-5-5-5-5-5|5-5-5-5-5-5-5-5|
F#|9-9-9-9-9-9-9-9|9-9-9-9-9-9-9-9|6-6-6-6-6-6-6-6|6-6-6-6-6-6-6-6|
C#|9-9-9-9-9-9-9-9|9-9-9-9-9-9-9-9|6-6-6-6-6-6-6-6|6-6-6-6-6-6-6-6|
G#|7-7-7-7-7-7-7-7|7-7-7-7-7-7-7-7|4-4-4-4-4-4-4-4|4-4-4-4-4-4-4-4|
D#|---------------|---------------|---------------|---------------|

   Ab              Ab            Eb                Bb
D#|---------------|---------------|---------------|---------------|
A#|---------------|---------------|---------------|---------------|
F#|6-6-6-6-6-6-6-6|6-6-6-6-6-6-6-6|---------------|--8-8-8-8-8-8-8|
C#|7-7-7-7-7-7-7-7|7-7-7-7-7-7-7-7|----6-6-------6|--9-9-9-9-9-9-9|
G#|7-7-7-7-7-7-7-7|7-7-7-7-7-7-7-7|7-7---------7--|--9-9-9-9-9-9-9|
D#|5-5-5-5-5-5-5-5|5-5-5-5-5-5-5-5|0-0---------0--|--7-7-7-7-7-7-7|

   Eb              Eb              Cm              Cm
D#|---------------|---------------|---------------|---------------|
A#|9-9-9-9-9-9-9-9|9-9-9-9-9-9-9-9|5-5-5-5-5-5-5-5|5-5-5-5-5-5-5-5|
F#|9-9-9-9-9-9-9-9|9-9-9-9-9-9-9-9|6-6-6-6-6-6-6-6|6-6-6-6-6-6-6-6|
C#|9-9-9-9-9-9-9-9|9-9-9-9-9-9-9-9|6-6-6-6-6-6-6-6|6-6-6-6-6-6-6-6|
G#|7-7-7-7-7-7-7-7|7-7-7-7-7-7-7-7|4-4-4-4-4-4-4-4|4-4-4-4-4-4-4-4|
D#|---------------|---------------|---------------|---------------|

   Ab              Ab              Eb                Bb
D#|---------------|---------------|---------------|---------------|
A#|---------------|---------------|---------------|---------------|
F#|6-6-6-6-6-6-6-6|6-6-6-6-6-6-6-6|---------------|--8-8-8-8-8-8-8|
C#|7-7-7-7-7-7-7-7|7-7-7-7-7-7-7-7|----6-6-------6|--9-9-9-9-9-9-9|
G#|7-7-7-7-7-7-7-7|7-7-7-7-7-7-7-7|7-7---------7--|--9-9-9-9-9-9-9|
D#|5-5-5-5-5-5-5-5|5-5-5-5-5-5-5-5|0-0---------0--|--7-7-7-7-7-7-7|

[Bridge]

   Ab        G oct Eb              Ab        G oct Eb
D#|---------------|---------------|---------------|---------------|
A#|---------------|9-9-9-9-9-9-9-9|---------------|9-9-9-9-9-9-9-9|
F#|6-6-6-6-6------|9-9-9-9-9-9-9-9|6-6-6-6-6------|9-9-9-9-9-9-9-9|
C#|7-7-7-7-7-6----|9-9-9-9-9-9-9-9|7-7-7-7-7-6----|9-9-9-9-9-9-9-9|
G#|7-7-7-7-7-x----|7-7-7-7-7-7-7-7|7-7-7-7-7-x----|7-7-7-7-7-7-7-7|
D#|5-5-5-5-5-4----|---------------|5-5-5-5-5-4----|---------------|

   Ab        G oct Eb              Bb              Bb
D#|---------------|---------------|---------------|---------------|
A#|---------------|9-9-9-9-9-9-9-9|---------------|---------------|
F#|6-6-6-6-6------|9-9-9-9-9-9-9-9|8-8-8-8-8-8-8-8|8-8-8-8-8-8-8-8|
C#|7-7-7-7-7-6----|9-9-9-9-9-9-9-9|9-9-9-9-9-9-9-9|9-9-9-9-9-9-9-9|
G#|7-7-7-7-7-x----|7-7-7-7-7-7-7-7|9-9-9-9-9-9-9-9|9-9-9-9-9-9-9-9|
D#|5-5-5-5-5-4----|---------------|7-7-7-7-7-7-7-7|7-7-7-7-7-7-7-7|

   Ab              Ab              Ab              Ab
D#|---------------|---------------|---------------|---------------|
A#|---------------|---------------|---------------|---------------|
F#|6~-------------|---------------|--------6~-----|---------------|
C#|7~-------------|---------------|----7~--7~-----|---------------|
G#|7~-------------|---------------|7~-------------|---------------|
D#|5~-------------|---------------|---------------|---------------|

   Eb              Eb              Eb              Eb
D#|---------------|---------------|---------------|---------------|
A#|9~-------------|---------------|---------------|9~-------------|
F#|9~-------------|---------------|---------------|---------------|
C#|9~-------------|---------------|---------------|---------------|
G#|7~-------------|---------------|---------------|---------------|
D#|---------------|---------------|---------------|---------------|

   Ab              Ab              Ab              Ab
D#|---------------|---------------|---------------|---------------|
A#|---------------|---------------|---------------|---------------|
F#|6~-------------|---------------|--------6~-----|---------------|
C#|7~-------------|---------------|----7~--7~-----|---------------|
G#|7~-------------|---------------|7~-------------|---------------|
D#|5~-------------|---------------|---------------|---------------|

   Eb              Eb              Eb              Eb
D#|---------------|---------------|---------------|---------------|
A#|9~-------------|---------------|---------------|9~-------------|
F#|9~-------------|---------------|---------------|---------------|
C#|9~-------------|---------------|---------------|---------------|
G#|7~-------------|---------------|---------------|---------------|
D#|---------------|---------------|---------------|---------------|

   Ab              Ab              Ab              Ab
D#|---------------|---------------|---------------|---------------|
A#|---------------|---------------|---------------|---------------|
F#|6-6-6-6-6-6-6-6|6-6-6-6-6-6-6-6|6-6-6-6-6-6-6-6|6-6-6-6-6-6-6-6|
C#|7-7-7-7-7-7-7-7|7-7-7-7-7-7-7-7|7-7-7-7-7-7-7-7|7-7-7-7-7-7-7-7|
G#|7-7-7-7-7-7-7-7|7-7-7-7-7-7-7-7|7-7-7-7-7-7-7-7|7-7-7-7-7-7-7-7|
D#|5-5-5-5-5-5-5-5|5-5-5-5-5-5-5-5|5-5-5-5-5-5-5-5|5-5-5-5-5-5-5-5|

   Eb              Eb              Eb              Eb
D#|---------------|---------------|---------------|---------------|
A#|9-9-9-9-9-9-9-9|9-9-9-9-9-9-9-9|9-9-9-9-9-9-9-9|9-9-9-9-9-9-9-9|
F#|9-9-9-9-9-9-9-9|9-9-9-9-9-9-9-9|9-9-9-9-9-9-9-9|9-9-9-9-9-9-9-9|
C#|9-9-9-9-9-9-9-9|9-9-9-9-9-9-9-9|9-9-9-9-9-9-9-9|9-9-9-9-9-9-9-9|
G#|7-7-7-7-7-7-7-7|7-7-7-7-7-7-7-7|7-7-7-7-7-7-7-7|7-7-7-7-7-7-7-7|
D#|---------------|---------------|---------------|---------------|

   Ab              Ab              Ab              Ab
D#|---------------|---------------|---------------|---------------|
A#|---------------|---------------|---------------|---------------|
F#|6-6-6-6-6-6-6-6|6-6-6-6-6-6-6-6|6-6-6-6-6-6-6-6|6-6-6-6-6-6-6-6|
C#|7-7-7-7-7-7-7-7|7-7-7-7-7-7-7-7|7-7-7-7-7-7-7-7|7-7-7-7-7-7-7-7|
G#|7-7-7-7-7-7-7-7|7-7-7-7-7-7-7-7|7-7-7-7-7-7-7-7|7-7-7-7-7-7-7-7|
D#|5-5-5-5-5-5-5-5|5-5-5-5-5-5-5-5|5-5-5-5-5-5-5-5|5-5-5-5-5-5-5-5|

   Eb              Eb              Eb              
D#|---------------|---------------|---------------|---------------|
A#|9-9-9-9-9-9-9-9|9-9-9-9-9-9-9-9|9-9-9-9-9-9-9-9|---------------|
F#|9-9-9-9-9-9-9-9|9-9-9-9-9-9-9-9|9-9-9-9-9-9-9-9|---------------|
C#|9-9-9-9-9-9-9-9|9-9-9-9-9-9-9-9|9-9-9-9-9-9-9-9|---------------|
G#|7-7-7-7-7-7-7-7|7-7-7-7-7-7-7-7|7-7-7-7-7-7-7-7|---------------|
D#|---------------|---------------|---------------|---------------|

[Chorus 3]

   Eb              Eb              Cm              Cm
D#|---------------|---------------|---------------|---------------|
A#|9-9-9-9-9-9-9-9|9-9-9-9-9-9-9-9|5-5-5-5-5-5-5-5|5-5-5-5-5-5-5-5|
F#|9-9-9-9-9-9-9-9|9-9-9-9-9-9-9-9|6-6-6-6-6-6-6-6|6-6-6-6-6-6-6-6|
C#|9-9-9-9-9-9-9-9|9-9-9-9-9-9-9-9|6-6-6-6-6-6-6-6|6-6-6-6-6-6-6-6|
G#|7-7-7-7-7-7-7-7|7-7-7-7-7-7-7-7|4-4-4-4-4-4-4-4|4-4-4-4-4-4-4-4|
D#|---------------|---------------|---------------|---------------|

   Ab              Ab              Eb              Bb
D#|---------------|---------------|---------------|---------------|
A#|---------------|---------------|---------------|---------------|
F#|6-6-6-6-6-6-6-6|6-6-6-6-6-6-6-6|---------------|--8-8-8-8-8-8-8|
C#|7-7-7-7-7-7-7-7|7-7-7-7-7-7-7-7|----6-6-------6|--9-9-9-9-9-9-9|
G#|7-7-7-7-7-7-7-7|7-7-7-7-7-7-7-7|7-7---------7--|--9-9-9-9-9-9-9|
D#|5-5-5-5-5-5-5-5|5-5-5-5-5-5-5-5|0-0---------0--|--7-7-7-7-7-7-7|

   Eb              Eb              Cm              Cm
D#|---------------|---------------|---------------|---------------|
A#|9-9-9-9-9-9-9-9|9-9-9-9-9-9-9-9|5-5-5-5-5-5-5-5|5-5-5-5-5-5-5-5|
F#|9-9-9-9-9-9-9-9|9-9-9-9-9-9-9-9|6-6-6-6-6-6-6-6|6-6-6-6-6-6-6-6|
C#|9-9-9-9-9-9-9-9|9-9-9-9-9-9-9-9|6-6-6-6-6-6-6-6|6-6-6-6-6-6-6-6|
G#|7-7-7-7-7-7-7-7|7-7-7-7-7-7-7-7|4-4-4-4-4-4-4-4|4-4-4-4-4-4-4-4|
D#|---------------|---------------|---------------|---------------|

   Ab               Ab             Eb              Eb              Eb              Eb
D#|---------------|---------------|---------------|---------------|---------------|---------------|
A#|---------------|---------------|---------------|---------------|---------------|---------------|
F#|6-6-6-6-6-6-6-6|6-6-6-6-6-6-6-6|---------------|---------------|---------------|---------------|
C#|7-7-7-7-7-7-7-7|7-7-7-7-7-7-7-7|----6-6-------6|----6-6-------6|----6-6-------6|---------------|
G#|7-7-7-7-7-7-7-7|7-7-7-7-7-7-7-7|7-7---------7--|7-7---------7--|7-7---------7--|7--------------|
D#|5-5-5-5-5-5-5-5|5-5-5-5-5-5-5-5|0-0---------0--|0-0---------0--|0-0---------0--|0--------------|


************************************
| ~ Let Ring
| x Dead note
************************************

            
            
Suggest correction
Creating personal tab
Creating personal tab
You can edit any tab online and save it as your Personal.

You can edit, replace or remove any tab part or add personal notes – all changes will be seen only by you.

Personal tabs can be accessed anytime from any device, even offline.
Learn more »
Give kudos to tab author, rate the tab!
1 2 3 4 5
comments
print report bad tab
2 comments total.
+1 reply
codyrobbins01 10 Mar 31, 2017 11:41 PM

Can you do Poison Pens or Throwback to The Honeymoon Suite! PLEASE!

guest
You may want to rate the tab now too:
select rating
Wanna post a correction for this tab? Suggest correction