Oops, an error
Loading. Please wait.

Misery Tab

1,510 views 63 this week
no commentswrite comment
1 2 3 4 5
x 6
add to favorites
launch autoscroll
font size
0
reset
how to read this tab
guitar tuner
×
Best way to learn
"Misery"
Autoscroll
slow
fast
+/-
esc
set tempo
stop
Author
Difficulty
Tuning
Capo
  follow
novice
E A D G B E
2nd fret
About this tab version
Easy to read and shows the opening riff. Was this info helpful? Yes No
Misery by Creeper


e|-----------------------------------|-----0-------0-------0-------0---|
B|-----1-------1-------1---------0---|-------1-------1-------1-------1-|
G|-------0-------0-------0-----0---0-|---2-----------------------2-----|
D|---2-------0-------2-----2/5-------|-3---------3-------3-----3-------|
A|-0-------2-------3-----------------|---------------------------------|
E|-----------------------------------|---------------------------------|

e|-----------------------------------|-----0-------0-------0-------0---|
B|-----1-------1-------1---------0---|-------1-------1-------1-------1-|
G|-------0-------0-------0-----0---0-|---2-------2-------2-------2-----|
D|---2-------0-------2-----2/5-------|-3-------------------------------|
A|-0-------2-------3-----------------|---------------------------------|
E|-----------------------------------|---------------------------------|

From here you should check out Chords version 1 of this song as it sounds correct to me

| /  slide up
Suggest correction
comments
print report bad tab
guest
You may want to rate the tab now too:
select rating
Wanna post a correction for this tab? Suggest correction