Oops, an error
Loading. Please wait.

Misery Tab

316 views 27 this week
no commentswrite comment
1 2 3 4 5
1 last vote to show rating
add to favorites
launch autoscroll
font size
0
reset
how to read this tab
guitar tuner
Autoscroll
slow
fast
+/-
esc
set tempo
stop
Help us to improve Ultimate-Guitar.com Take our survey!
×
Author
Difficulty
Capo
novice
2nd fret
About this tab version
Easy to read and shows the opening riff. Was this info helpful? Yes No
Misery by Creeper


e|----------------------------------------------------------------------------------|
B|-----1----------1----------1------------0----------5------5---------5------5------|
G|-------0----------0----------0------------0------5---5--5---5-----5---5--5---5----|
D|---2---------2-----------2-------2/5-5--------3-----------------3-----------------|
A|-0---------2-----------3----------------------------------------------------------|
E|----------------------------------------------------------------------------------|

e|----------------------------------------------------------------------------------|
B|-----1----------1----------1------------0----------5------5------5------5---------|
G|-------0----------0----------0------------0------5---5--5---5--5---5--5---5-------|
D|---2---------2-----------2-------2/5-5--------3-----------------------------------|
A|-0---------2-----------3----------------------------------------------------------|
E|----------------------------------------------------------------------------------|

From here you should check out Chords version 1 of this song as it sounds correct to me

| /  slide up
Suggest correction
Give kudos to tab author, rate the tab!
1 2 3 4 5
comments
print report bad tab
guest
You may want to rate the tab now too:
select rating
Wanna post a correction for this tab? Suggest correction