Oops, an error
Loading. Please wait.

Ist Es Wahr Tab

657 views 1 this week
no commentswrite comment
1 2 3 4 5
3 more votes to show rating
add to favorites
launch autoscroll
font size
0
reset
how to read this tab
guitar tuner
×
Best way to learn
"Ist Es Wahr"
Autoscroll
slow
fast
+/-
esc
set tempo
stop
Author
Band - Crematory
Song - Ist Es Wahr

Tuning: Standard
Key:
~ - vibrato
/ - slide up
\ - slide down
h - hammer on
p - pull off
pm - palm muted
b - bend

e|-------------------------------------------------------------------|
B|-------------------------------------------------------------------|
G|--10~~--15-17--12-13--8/10~-8~-------------------------------------|
D|-------------------------------8/10~-------7h8h10p8p7--------------|
A|-------------------------------------7h8h10------------------------|
E|-------------------------------------------------------------------|

e|-------------------------------------------------------------------|
B|-------------------------------------------------------------------|
G|--8------8------8------8-------8h10p8------------------------------|
D|---10-10--10-10--10-10--10-10--------11-10-10h11~-10h11p10~--------|
A|-------------------------------------------------------------------|
E|-------------------------------------------------------------------|
pm   .  .   .  .   .  .   .  .

e|-------------------------------------------------------------------|
B|-------------------------------------------------------------------|
G|-------------------------------------------------------------------|
D|--10-8-------------------------------------------------------------|
A|------11-10-7-8~----7-8-10/11~----7-8-10h11p10~--------------------|
E|-------------------------------------------------------------------|

e|-------------------------------------------------------------------|
B|----------------8-9---8h9p8\6-5h6~-----/9-9~-----------------------|
G|------------9-10-----------------------------5-5h6p5~--------------|
D|-------9-10--------------------------------------------------------|
A|--10-11------------------------------------------------------------|
E|-------------------------------------------------------------------|
pm         .
e|-------------------------------------------------------------------|
B|-----6-------------------------------------------------------------|
G|--5h6-6-5-3---3h5p3------------------------------------------------|
D|-------------------6-5b6b5-3/5~\------3-5/6~---3-5h6p5~------------|
A|------------------------------------3--------3---------------------|
E|-------------------------------------------------------------------|
pm        .                           .        .

e|-------6-----------------------------------------------------------|
B|--6h8h9-9\8-8\6-6\4-4/6-6~-----------------------------------------|
G|-------------------------------------------------------------------|
D|-------------------------------------------------------------------|
A|-------------------------------------------------------------------|
E|-------------------------------------------------------------------|
Suggest correction
Give kudos to tab author, rate the tab!
1 2 3 4 5
comments
print report bad tab
guest
You may want to rate the tab now too:
select rating
Wanna post a correction for this tab? Suggest correction