Oops, an error
Loading. Please wait.

Orbiter Tab

321 views 1 this week
no commentswrite comment
1 2 3 4 5
3 more votes to show rating
add to favorites
launch autoscroll
font size
0
reset
how to read this tab
guitar tuner
Autoscroll
slow
fast
+/-
esc
set tempo
stop
Help us to improve Ultimate-Guitar.com Take our survey!
×
Author
Difficulty
novice
verse: (clean)

e|--------------------------------------------------------------------------|
B|-------3--------3---------3---------3-------------------------------------|
G|-----3---3----3---3-----3---3-----3---3-----------------------------------|
D|---------------------1----------------------------------------------------|
A|---1----------------------------------------------------------------------|
E|-----------4-------------------4------------------------------------------|

lead w/ distortion
e|--------------------------------------------------------------------------|
B|-----5b--3---5b--3---5b--3-----0-------2----------------------------------|
G|-----------------------------------2--------------------------------------|
D|--------------------------------------------------------------------------|
A|--------------------------------------------------------------------------|
E|--------------------------------------------------------------------------|

chorus: "how could you do that to me?"
e|---3(ring out)-----1------------------------------------------------------|
B|---4---------------3-------3--/5--8--5--3--/5--8--5--3--/5--8--5--3-------|
G|---5---------------3------------------------------------------------------|
D|--------------------------------------------------------------------------|
A|--------------------------------------------------------------------------|
E|--------------------------------------------------------------------------|


************************************

| /   slide up
| \   slide down
| h   hammer-on
| p   pull-off
| ~   vibrato
| +   harmonic
| x   Mute note
| b   Bend
| pb  Pre-bend
| br  Bend release
| pbr Pre-bend release
| brb Bend release bend

************************************
Suggest correction
Give kudos to tab author, rate the tab!
1 2 3 4 5
comments
print report bad tab
guest
You may want to rate the tab now too:
select rating
Wanna post a correction for this tab? Suggest correction