Oops, an error
Loading. Please wait.

Maldita Bruja tab

version 1
version 1

Whole song

81 views 3 this week
no commentswrite comment
1 2 3 4 5
3 more votes to show rating
add to favorites
×
Save as Personal and add changes to this tab that will be seen only by you. Learn more ›
×
You can save this tab as Personal to edit and correct it or add notes. All changes will be seen only by you. Learn more »
launch autoscroll
font size
0
reset
how to read this tab
guitar tuner
edit
Autoscroll
slow
fast
+/-
esc
set tempo
stop
Bien, cualquier duda o sugerencia a mi correo

Guitarra 1

A|-------3-2-0---0----|----0---------------------|
E|-----0-------3------|--0---3-1-0-0h1-----------|

Guitarra 2
                C#m                  A
e|---------------4----|--------------5-----------|
B|---------------5----|--------------5-----------|
G|---------------6----|--------------6-----------|
D|---------------6----|--------------7-----------|
A|---------------4----|--------------7-----------|
E|--------------------|--------------------------|

Guitarra 1

e|---------------4-2-0-0h2-0-0h2-0-2-0--4-5-4----|
B|------5---5------------------------------------|
G|--6-6---6----6---------------------------------|
D|-----------------------------------------------|
A|-----------------------------------------------|
E|-----------------------------------------------|

               C#m
Desde que te fuiste te veo en todos lados

               A
tu voz inspecciona mi ocio y mi trabajo

            B
en casa tu nada me recibe con besos

               E                          G#
y en la cama me abraza tu ausencia y hace arder mi piel y

        C#m
duermo amando el álbum de fotos

                   A
despierto y tu perfume emana de en mis poros

                B
me ducho con recuerdos visto a tu moda y

               E                       G#
así todos los días ya estoy cansado de tanta joda.

            C#m                       A
Y se repite la historia, no sales de mi memoria,

              B
mi mente se alimenta solo del pasado

            E                   G#
sabe que esa es la única manera de estar a tu lado

   C#m                     A
Maldita bruja, que mi corazón estrujas

          B
Libérame de tu hechizo y mi sufrir

                     E                G#
No quiero que estos días se vuelvan a repetir.

.» Se repiten los mismos acordes «.

Quiero olvidarte pero tu recuerdo esta bien cimentado,
es como querer hacer bueno a un ser humano,
como intentar acariciar sin manos o
asegurar que el presidente de los U.S.A. no ha matado.

Desatornillate de mi cerebro,
ya me estas haciendo perfecto el sufrimiento.
Sin querer te nombro, tu me has maldecido,
no te culpo pues por aun amarte me maldigo yo mismo

Coro:
Y se repite la historia...

Solo:

e|--------------------------------------------|
B|--------------------------------------------|
G|-----7~~7-7-7p5-5-5h7---7p5--7-7-9-7-10-----|

e|---------------------------------10-9-7-9~~-|
B|-----------8-8------10-8----8-10------------|
G|-9-7-9-10------10-9------10-----------------|

H  - hammer on
P  - pull off
~  - Vibrato

»   DeDiCaDo PaRa Andrea una amiga iNoLvIdAbLe.  «
»   A pesar de los años y toda el agua que nos   «
»        separa nuestra amistad continua.        «

     » Feliz Navidad y Venturoso Año Nuevo «

               Diciembre - 2006

            
            
Suggest correction
Creating personal tab
Creating personal tab
You can edit any tab online and save it as your Personal.

You can edit, replace or remove any tab part or add personal notes – all changes will be seen only by you.

Personal tabs can be accessed anytime from any device, even offline.
Learn more »
Give kudos to tab author, rate the tab!
1 2 3 4 5
comments
print report bad tab
guest
Wanna post a correction for this tab? Suggest correction