Oops, an error
Loading. Please wait.

Holocaust chords

by Crisis
73 views 3 this week
no commentswrite comment
1 2 3 4 5
3 more votes to show rating
add to favorites
×
Save as Personal and add changes to this tab that will be seen only by you. Learn more ›
×
You can save this tab as Personal to edit and correct it or add notes. All changes will be seen only by you. Learn more »
launch autoscroll
font size
0
reset
transpose
0
reset
display chords
guitar tuner
edit
Autoscroll
slow
fast
+/-
esc
set tempo
stop
Author
Difficulty
Strumming
There is no strumming pattern for this song yet. and get +5 IQ
[Intro]

E-------------------------------------|
B-------------------------------------|
G--2-0-----4-2-----0-------0----------|
D------2-------2-----3-2------3-2-----|  X2
A-------------------------------------|
E-------------------------------------|

[Bass Enter with guitar riff x4]
G     A      F      G

[Bass continues with 2nd guitar riff x2]
G     A      F      G

E---------------------------------------------|
B---------------------------------------------|
G---------------------------------------------|
D---0-0-3-2-----------------------------------|  X2
A-----------2-2-0-2-3-0-----0-0-3-2-----------|
E-----------------------------------1-1-0-1-3-|

G              A       F          G
You read it in a book seen it on your TV
G             A         F                 G
To you its a nightmare, but to some its a dream
G                    A       F              G
They've hidden their swastika behind a union jack
G                   A           F                    G
You better watch out brothers, they're heading for a comeback
G                 A                  F                    G
remember Belsen, remember Aushwitz, they're trying to say they didn't exist
G                       A                  F                      G
Don't let them put this country in chains, don't let six million die in vain

G     A       F      G

[Bass continues with 2nd guitar riff x2]
G     A      F      G

E---------------------------------------------|
B---------------------------------------------|
G---------------------------------------------|
D---0-0-3-2-----------------------------------|  X2
A-----------2-2-0-2-3-0-----0-0-3-2-----------|
E-----------------------------------1-1-0-1-3-|

[break guitar plays chords x4]
G     A       F      G

[all in]
G     A       F      G
                    Belsen
                    Aushwitz
                    Dachau
                    Ravensbrook
                    Treblinka

G     A       F      G

[Bass continues with 2nd guitar riff x2]
G     A      F      G

E---------------------------------------------|
B---------------------------------------------|
G---------------------------------------------|
D---0-0-3-2-----------------------------------|  X2
A-----------2-2-0-2-3-0-----0-0-3-2-----------|
E-----------------------------------1-1-0-1-3-|

Suggest correction
Creating personal tab
Creating personal tab
You can edit any tab online and save it as your Personal.

You can edit, replace or remove any tab part or add personal notes – all changes will be seen only by you.

Personal tabs can be accessed anytime from any device, even offline.
Learn more »
Give kudos to tab author, rate the tab!
1 2 3 4 5
comments
print report bad tab
guest
You may want to rate the tab now too:
select rating
Wanna post a correction for this tab? Suggest correction