Oops, an error
Loading. Please wait.

Mf2 tab

version 3
version 3

Whole song

Interactive

584 views 1 this week
no commentswrite comment
1 2 3 4 5
3 more votes to show rating
add to favorites
×
Save as Personal and add changes to this tab that will be seen only by you. Learn more ›
×
You can save this tab as Personal to edit and correct it or add notes. All changes will be seen only by you. Learn more »
launch autoscroll
font size
0
reset
how to read this tab
guitar tuner
edit
Autoscroll
slow
fast
+/-
esc
set tempo
stop
Intro

E:-----------------------------------------|
B:-----------------------------------------|
G:-----------------------------------------|   Repeat X3
D:-----------------------------------------|
A:--0-00-00-00-00-000-0000-----8-----------|
D:--0-00-00-00-00-000-0000----6-6----------|
   P.M....................

Into end

E:-------------------------------------------|
B:-------------------------------------------|
G:-------------------------------------------|
D:--5555--5555-------------5555--5555--------|
A:--5555--5555-------------5555--5555--------|
D:--5555--5555-------------5555--5555--------|
             (Are you ready?)          (GO!!!)

Prolouge                                               Guitar 2

E:--------------------------|              E:-----------------------------|
B:--------------------------|              B:-----------------------------|
G:--------------------------| Repeat X6    G:-----------------------------|
D:0h5h7h0h5h70h5h7h0h5h7----|              D:-----0~-----33h2~------------|
A:--------------------------|              A:-----0~-----33h2~------------|
D:--------------------------|              D:-----0~-----33h2~------------|


Bridge

E:------------------------------------------|
B:------------------------------------------|
G:------------------------------------------|
D:------------------------------------------|
A:------------------------------8-----------|
D:--0-00-00-00-00-000-00-00----6-6----------|


Repeat intro for Verse ( Repeat as needed )


Pre-Chorus

E:-----------------|       Repeat Prolouge for Chorus
B:-----------------|          ( Repeat as needed )
G:-----------------|
D:---555---333-----|
A:---555---333-----|
D:---555---333-----|

Chorus End

E:-------------------------------------------------------------|
B:-------------------------------------------------------------|
G:-------------------------------------------------------------|
D:--------------------------------------------5555---5555------|
A:-------------------------8------------------5555---5555------|
D:--2h0--2h0--2h0--2-0----6-6-----------------5555---5555------|


Repeat Intro for 2nd Verse
Repeat Bridge
Repeat chorus And Chorus end

E:-------------------------------------------------------|
B:-------------------------------------------------------|
G:-------------------------------------------------------|
D:-------------------------------------------------------|
A:---------------------------------------8---------------|
D:--00-2h0-0-2h0--2h0--00--2h0-0-2-0----6-6--------------|

Repeat Chorus and End with Verse.

All credit goes to Esteban Wright, I just did a little editting where I thought some 
and chords were wrong, but here it is. I fixed it up a little, hope you enjoy, If you have 
questions email me at rjg214@yahoo.com

            
            
Suggest correction
Creating personal tab
Creating personal tab
You can edit any tab online and save it as your Personal.

You can edit, replace or remove any tab part or add personal notes – all changes will be seen only by you.

Personal tabs can be accessed anytime from any device, even offline.
Learn more »
Give kudos to tab author, rate the tab!
1 2 3 4 5
comments
print report bad tab
guest
You may want to rate the tab now too:
select rating
Wanna post a correction for this tab? Suggest correction