Oops, an error
Loading. Please wait.

Tu Mirada tab

version 1
version 1

Whole song

47 views 1 this week
no commentswrite comment
1 2 3 4 5
3 more votes to show rating
add to favorites
×
Save as Personal and add changes to this tab that will be seen only by you. Learn more ›
×
You can save this tab as Personal to edit and correct it or add notes. All changes will be seen only by you. Learn more »
launch autoscroll
font size
0
reset
how to read this tab
guitar tuner
edit
Autoscroll
slow
fast
+/-
esc
set tempo
stop
::::::::::::::::::INTRO::::::::::::::::::::

       F#m    D            F#m    D
e|---------------------------------------|
B|----14----15----14------14----15----14-|
G|-11----11----11------11----11----11----|
D|---------------------------------------|
A|---------------------------------------|
E|---------------------------------------|
                                           (X2)
       G#m    D            G#m    D
e|---------------------------------------|
B|----14----15----14------14----15----14-|
G|-13----13----13------13----13----13----|
D|---------------------------------------|
A|---------------------------------------|
E|---------------------------------------|


:::::::::::::::::ESTROFA::::::::::::::::::::

     A                   F#m
Tus ojos revelan que yo nada puedo esconder
            D                    E
Que no soy nada sin ti oh fiel Señor
  A                        F#m
Todo lo sabes de mí cuando miras el corazón
            D                    E
Todo lo puedes ver muy dentro de mí


:::::::::::::::::PRE-CORO:::::::::::::::::::


          F#m               D
Lleva mi vida a una sola verdad
              F#m                  D    E D
Que cuando me miras nada puedo ocultar

:::::::::::::::::::CORO:::::::::::::::::::::

A         G         F#m
Se que es tu fidelidad
             D         F#m
Que lleva mi vida más allá
          D            E
De lo que pueda imaginar
A       G          F#m
Se que no puedo negar
          D            F#m
Que tu mirada puesta en mí
     D           D
Me llena de tu paz

INTRO=====(X1)
ESTROFA===(X1)
PRE-CORO==(X2)
CORO======(X1)

::::::::::::::::::::::::::::SOLO:::::::::::::::::::::::::::::
                     D C#m F#m E G D C#

e|----------------------------------------------------------|
B|------------------------15-13/1213-----------------------|
G|-11-9/89--14-12/1112---------------14-13h14h13h14h13h14-| (X2)
D|----------------------------------------------------------|
A|----------------------------------------------------------|
E|----------------------------------------------------------|

PRE-CORO===(X1) sin musica

e|--10-7----7---------|
B|-------10---10-7----|
G|-----------------7--|
D|--------------------|
A|--------------------|
E|--------------------|


PRE-CORO===(X1)
CORO=======(X2)

FIN==== "A"


               O.V.I.C.E
    "I.D.E.A" Iglesia Dios Es Amor
   La Fria Edo. Tachira - VENEZUELA

            
            
Suggest correction
Creating personal tab
Creating personal tab
You can edit any tab online and save it as your Personal.

You can edit, replace or remove any tab part or add personal notes – all changes will be seen only by you.

Personal tabs can be accessed anytime from any device, even offline.
Learn more »
Give kudos to tab author, rate the tab!
1 2 3 4 5
comments
print report bad tab
guest
Wanna post a correction for this tab? Suggest correction