Oops, an error
Loading. Please wait.

Un Latido bass

25 views 3 this week
no commentswrite comment
1 2 3 4 5
3 more votes to show rating
add to favorites
×
Save as Personal and add changes to this tab that will be seen only by you. Learn more ›
×
You can save this tab as Personal to edit and correct it or add notes. All changes will be seen only by you. Learn more »
launch autoscroll
font size
0
reset
guitar tuner
edit
Autoscroll
slow
fast
+/-
esc
set tempo
stop
UNA ROLA MUY PADRE
LE HICE ALGUNAS MODIFICACIONES
ESPERO Y LES GUSTE
ASI K AHI LES VA

INTRO JUNTO CON TECLADO
(ES SOLO UNA SUGERENCIA SINO LES GUSTA
ENTREN HASTA K ENTRA LA GUITARRA)

E:--17(X8)--------------------------
A:----------15(X8)---17(X8)---19(X8)
D:----------------------------------
G:----------------------------------

INTRO 2
AKI ES CUANDO ENTRAN TODOS

E:-5(X8)----------------------
A:-------3(X8)---5(X8)---7(X8)         X2
D:----------------------------
G:----------------------------

VERSO 1
UN SONIDO UN LATIDO ESE ES MI CORAZON
E:-55--------------------------------
A:--------33--------55-----------7--7

LATE FUERTE SE ACELERA SOLO POR OIR TU VOZ
E:-55--------------------------------
A:--------33--------55-----------7--7

Y DESPUES VA LO DE LA INTRO 2


E:-5(X8)----------------------
A:-------3(X8)---5(X8)---7(X8)         X4
D:----------------------------
G:----------------------------

SON CUATRO VECES XK SE HACE OTRA VEZ EL ARREGLO DE GUITARRA
Y OTRA VEZ SE REPITE LO DE EL VERSO
Y LUEGO VA EL CORO ASI:

E:--------------------------------
A:---2(X8)---5(X8)---7(X8)---9(X8)
D:--------------------------------
G:--------------------------------

SE REPITE TODO Y EN LAS SUBIDAS VA ESTO:

E:-5(X8)----------------------
A:-------3(X8)---5(X8)---7(X8)
D:----------------------------
G:----------------------------

E:-7(X8)----------------------
A:-------5(X8)---7(X8)---9(X8)
D:----------------------------
G:----------------------------

E:-9(X8)---------------------
A:------7(X8)---9(X8)---11(X8)
D:---------------------------
G:---------------------------

E:-5(X8)----------------------
A:-------3(X8)---5(X8)---7(X8)
D:----------------------------
G:----------------------------

EL CORO TAMBIEN TIENE UNA SUBIDA
Y VA ASI
SOLO CHEKEN LOS TIEMPOS

E:--------------------------------
A:---2(X8)---5(X8)---7(X8)---9(X8)
D:--------------------------------
G:--------------------------------

E:---5(X8)--------------------
A:--------3(X8)---5(X8)---7(X8)
D:-----------------------------
G:-----------------------------

E:---4(X8)-----------------------
A:---------7(X8)---9(X8)---11(X8)
D:-------------------------------
G:-------------------------------

SOLO CHEKEN CUANDO VA CADA UNA
JEJEJE
ESTA TRANSCRIPCION
LA HICE PENSANDO EN LA POCISION DE LAS NOTAS
PARA VARIAR LA ROLA
USEN LAS NOTAS DESPUES DEL TRASTE
12
Y SIEMPRE GERSON EN LA TRANSCRIPCION
Y SALUDOTES A LA VIVI Y LAS CLAUS
JEJE
JESUS FREAK FOREVER¡¡¡¡¡¡¡¡¡¡¡¡¡¡¡¡¡¡¡

            
            
Suggest correction
Creating personal tab
Creating personal tab
You can edit any tab online and save it as your Personal.

You can edit, replace or remove any tab part or add personal notes – all changes will be seen only by you.

Personal tabs can be accessed anytime from any device, even offline.
Learn more »
Give kudos to tab author, rate the tab!
1 2 3 4 5
comments
print report bad tab
guest
Wanna post a correction for this tab? Suggest correction