Oops, an error
Loading. Please wait.

Little Girl bass

28 views 1 this week
no commentswrite comment
1 2 3 4 5
3 more votes to show rating
add to favorites
×
Save as Personal and add changes to this tab that will be seen only by you. Learn more ›
×
You can save this tab as Personal to edit and correct it or add notes. All changes will be seen only by you. Learn more »
launch autoscroll
font size
0
reset
guitar tuner
edit
Autoscroll
slow
fast
+/-
esc
set tempo
stop
Author
Difficulty
Tabbed by: 6METAL6BASSIST6
E-mail: petergriffinav@gmail.com

Tuning: EADG

G|------------------------------------------------|
D|------------------------------------------------|
A|------------------------------------------------|
E|------------------------------------------------|

G|----------------------------------------------------------------|
D|----------------------------------------------------------------| x2
A|----------------------------------------------------------------|
E|----5-------5-------5-------5-------5-------5-------5-------5---|

0:14

G|----------------------------------------------------------------|
D|----------------------------------------------------------------| x3
A|----------------------------------------------------------------|
E|----5-------5-------5-------5-------5-------5-------5-------5---|

G|--------------------------------|
D|--------------------------------|
A|--------------------------------|
E|----5-------5-------5-------5---|

0:30

G|----------------------------------------------------------------|
D|----------------------------------------------------------------|
A|----7-------7-------7-------7-------7-------7-------7-------7---|
E|----------------------------------------------------------------|

G|------------------------------------------------|
D|------------------------------------------------|
A|----7-------7-------7-------7-------7-------7---|
E|------------------------------------------------|

0:38

G|----------------------------------------------------------------|
D|----------------------------------------------------------------|
A|----------------------------------------------------------------|
E|----5-------5-------5-------5-------5-------5-------5-------5---|

G|------------------------------------------------|
D|------------------------------------------------|
A|------------------------------------------------|
E|----5-------5-------5-------5-------5-------5---|

G|----------------------------------------------------------------|
D|----------------------------------------------------------------|
A|----5-------5-------7-------7-----------------------------------|
E|------------------------------------5-------5-------7-------7---|

G|----------------------------------------------------------------|
D|----------------------------------------------------------------|
A|7-----7-----7-----7-----5-------5-----5-----5-----5-----3-------|
E|----------------------------5-------------------------------3---|

G|----------------------------------------------------------------|
D|----------------------------------------------------------------|
A|----------------------------------------------------------------|
E|5---------------------------------------------------------------|

1:00

G|----------------------------------------------------------------|
D|----------------------------------------------------------------| x3
A|----------------------------------------------------------------|
E|----5-------5-------5-------5-------5-------5-------5-------5---|

G|--------------------------------|
D|--------------------------------|
A|--------------------------------|
E|----5-------5-------5-------5---|

1:16

G|----------------------------------------------------------------|
D|----------------------------------------------------------------|
A|----7-------7-------7-------7-------7-------7-------7-------7---|
E|----------------------------------------------------------------|

G|------------------------------------------------|
D|------------------------------------------------|
A|----7-------7-------7-------7-------7-------7---|
E|------------------------------------------------|

1:24

G|----------------------------------------------------------------|
D|----------------------------------------------------------------|
A|----------------------------------------------------------------|
E|----5-------5-------5-------5-------5-------5-------5-------5---|

G|------------------------------------------------|
D|------------------------------------------------|
A|------------------------------------------------|
E|----5-------5-------5-------5-------5-------5---|

G|----------------------------------------------------------------|
D|----------------------------------------------------------------|
A|----5-------5-------7-------7-----------------------------------|
E|------------------------------------5-------5-------7-------7---|

G|----------------------------------------------------------------|
D|----------------------------------------------------------------|
A|7-----7-----7-----7-----5-------5-----5-----5-----5-----3-------|
E|----------------------------5-------------------------------3---|

G|----------------------------------------------------------------|
D|----------------------------------------------------------------|
A|----------------------------------------------------------------|
E|5---------------------------------------------------------------|

1:46

G|----------------------------------------------------------------|
D|7---------------------------------------------------------------|
A|----------------------------------------------------------------|
E|----5-------5-------5-------5-------5-------5-------5-------5---|

G|----------------------------------------------------------------|
D|----------------------------------------------------------------|
A|----5-------5-------5-------5-----------------------------------|
E|------------------------------------5-------5-------5-------5---|

G|----------------------------------------------------------------|
D|----------------------------------------------------------------|
A|7-----7-----7-----7-----5-------5-----5-----5-----5-----3-------|
E|----------------------------5-------------------------------3---|

G|----------------------------------------------------------------|
D|----------------------------------------------------------------|
A|----------------------------------------------------------------|
E|----5-------5-------5-------5-------5-------5-------5-------5---|

2:04

G|----------------------------------------------------------------|
D|----------------------------------------------------------------| x3
A|----------------------------------------------------------------|
E|----5-------5-------5-------5-------5-------5-------5-------5---|

G|--------------------------------|
D|--------------------------------|
A|--------------------------------|
E|----5-------5-------5-------5---|

2:21

G|----------------------------------------------------------------|
D|----------------------------------------------------------------|
A|----7-------7-------7-------7-------7-------7-------7-------7---|
E|----------------------------------------------------------------|

G|------------------------------------------------|
D|------------------------------------------------|
A|----7-------7-------7-------7-------7-------7---|
E|------------------------------------------------|

2:28

G|----------------------------------------------------------------|
D|----------------------------------------------------------------|
A|----------------------------------------------------------------|
E|----5-------5-------5-------5-------5-------5-------5-------5---|

G|------------------------------------------------|
D|------------------------------------------------|
A|------------------------------------------------|
E|----5-------5-------5-------5-------5-------5---|

G|----------------------------------------------------------------|
D|----------------------------------------------------------------|
A|----5-------5-------7-------7-----------------------------------|
E|------------------------------------5-------5-------7-------7---|

G|----------------------------------------------------------------|
D|----------------------------------------------------------------|
A|7-----7-----7-----7-----5-------5-----5-----5-----5-----3-------|
E|----------------------------5-------------------------------3---|

G|----------------------------------------------------------------|
D|----------------------------------------------------------------|
A|----------------------------------------------------------------|
E|5---------------------------------------------------------------|

G|----------------------------------------------------------------|
D|----------------------------------------------------------------| x2
A|----------------------------------------------------------------|
E|----5-------5-------5-------5-------5-------5-------5-------5---|

G|----------------------------------------------------------------|
D|----------------------------------------------------------------|
A|----------------------------------------------------------------|
E|----5-------5-------5-------5-------5-------5-------5-------5---|

            
            
Suggest correction
Creating personal tab
Creating personal tab
You can edit any tab online and save it as your Personal.

You can edit, replace or remove any tab part or add personal notes – all changes will be seen only by you.

Personal tabs can be accessed anytime from any device, even offline.
Learn more »
Give kudos to tab author, rate the tab!
1 2 3 4 5
comments
print report bad tab
guest
You may want to rate the tab now too:
select rating
Wanna post a correction for this tab? Suggest correction