Oops, an error
Loading. Please wait.

Younger Generation Bass Tab

4 views 1 this week
no commentswrite comment
1 2 3 4 5
3 more votes to show rating
add to favorites
launch autoscroll
font size
0
reset
guitar tuner
Autoscroll
slow
fast
+/-
esc
set tempo
stop
Help us to improve Ultimate-Guitar.com Take our survey!
×
Author
Difficulty
novice
Tabbed by: 6METAL6BASSIST6
E-mail: petergriffinav@gmail.com

Tuning: EADG

G|----------------------------------------------------------------|
D|----------------------------------------------------------------|
A|3---------------3---------------3---------------3---------------|
E|------------3---------------3---------------3---------------3---|

0:05

G|----------------------------------------------------------------|.
D|----------------------------------------------------------------|.
A|3---------------3---------------5---------------5---------------|.
E|------------3---------------3---------------5---------------3---|.
                                                                   . x2
G|----------------------------------------------------------------|.
D|5---------------------------5-----------------------------------|.
A|--------------------------------3---------------3---------------|.
E|------------3---3---------------------------3---------------3---|.

0:23

G|----------------------------------------------------------------|
D|------------------------------------------------------------7---|
A|3---------------3---------------5---------------5---------------|
E|------------3---------------3---------------5-------------------|

G|----------------------------------------------------------------|
D|5---------------------------5-----------------------------------|
A|--------------------------------3---------------3---------------|
E|------------3---3---------------------------3---------------3---|

G|----------------------------------------------------------------|
D|----------------------------------------------------------------|
A|3---------------3---------------5---------------5---------------|
E|------------3---------------3---------------5---------------3---|

G|----------------------------------------------------------------|
D|5---------------------------5-----------------------------------|
A|--------------------------------3---------------3---------------|
E|------------3---3---------------------------3---------------3---|

G|----------------------------------------------------------------|
D|----------------5---------------------------------------2-------|
A|5-----------5-------------------3-----------3---5---------------|
E|----------------------------3-----------------------------------|

0:47

G|----------------------------------------------------------------|
D|3---------------5-----------------------------------------------|
A|------------3-------------------3-------2-----------------------|
E|----------------------------3-------------------5-----------5---|

G|----------------------------------------------------------------|
D|5---------------5-----------------------------------------------|
A|------------5-------------------3-------2-----------------------|
E|----------------------------3-------------------5---------------|

G|----------------------------------------------------------------|
D|3---------------5-----------------------------------------------|
A|------------3-------------------3-------2-----------------------|
E|----------------------------3-------------------5-----------5---|

G|----------------------------------------------------------------|
D|----------------------------------------------------------------|
A|5---------------5---------------5-----------5---5-------5---5---|
E|----------------------------------------------------------------|

1:05

G|----------------------------------------------------------------|
D|----------------------------------------------------------------|
A|3---------------2-----------------------------------------------|
E|------------3---------------3---5-----------5---5---------------|

G|----------------------------------------------------------------|
D|----------------------------------------2-------3-------4-------|
A|----------------2-------3-------5-------------------------------|
E|3-------5-------------------------------------------------------|

1:14

G|----------------------------------------------------------------|.
D|----------------------------------------------------------------|.
A|3---------------3---------------5---------------5---------------|.
E|------------3---------------3---------------5---------------3---|.
                                                                   . x2
G|----------------------------------------------------------------|.
D|5---------------------------5-----------------------------------|.
A|--------------------------------3---------------3---------------|.
E|------------3---3---------------------------3---------------3---|.

G|----------------------------------------------------------------|
D|----------------5---------------------------------------2-------|
A|5-----------5-------------------3-----------3---5---------------|
E|----------------------------3-----------------------------------|

1:33

G|----------------------------------------------------------------|
D|3---------------5-----------------------------------------------|
A|------------3-------------------3-------2-----------------------|
E|----------------------------3-------------------5-----------5---|

G|----------------------------------------------------------------|
D|5---------------5-----------------------------------------------|
A|------------5-------------------3-------2-----------------------|
E|----------------------------3-------------------5-----------5---|

G|----------------------------------------------------------------|
D|3---------------5-----------------------------------------------|
A|------------3-------------------3-------2-----------------------|
E|----------------------------3-------------------5-----------5---|

G|----------------------------------------------------------------|
D|----------------------------------------------------------------|
A|5---------------5---------------5-----------5---5-------5-------|
E|----------------------------------------------------------------|

G|----------------------------------------------------|
D|3---------------3-----------3---5-------------------|
A|------------3-------------------------------5-------|
E|------------------------------------------------3---|
Suggest correction
Give kudos to tab author, rate the tab!
1 2 3 4 5
comments
print report bad tab
guest
You may want to rate the tab now too:
select rating
Wanna post a correction for this tab? Suggest correction