Oops, an error
Loading. Please wait.

Hard Times Tab

version 1
version 1

Whole song

Interactive

6,567 views 15 this week
1 commentread comment
1 2 3 4 5
accurate
x 4
add to favorites
launch autoscroll
font size
0
reset
how to read this tab
guitar tuner
Autoscroll
slow
fast
+/-
esc
set tempo
stop
Help us to improve Ultimate-Guitar.com Take our survey!
×
Author
Difficulty
Artist: Cro-Mags
Song: Hard Times
e-mail: iamtheowl133@aol.com


e|--------------------------------------------------------------------------|
B|--------------------------------------------------------------------------|
G|--------------------------------------------------------------------------|
D|-------------------9------------------------------------------------------|
A|--2--4--5--3-------7--4--5--3---------------------------------------------|
E|--0--2--3--1----------2--3--1---------------------------------------------|

 Listen to the song how many times to play each chord and when you gotta palm-mute

e|--------------------------------------------------------------------------|
B|--------------------------------------------------------------------------|
G|--------------------------------------------------------------------------|
D|--------------------------------------------------------------------------|
A|--5--8--5--6--------------------------------------------------------------|
E|--3--6--3--4---(2x)-------------------------------------------------------|

   Hard times hard times seems I'm ...

e|--------------------------------------------------------------------------|
B|--------------------------------------------------------------------------|
G|--------------------------------------------------------------------------|
D|--------------------------------------------------------------------------|
A|--2--4--5--3--------------------------------------------------------------|
E|--0--2--3--1--------------------------------------------------------------|

   Play four times and on the fourth time
                                     hang on to the last chord!

e|--------------------------------------------------------------------------|
B|--------------------------------------------------------------------------|
G|--------------------------------------------------------------------------|
D|--------------------------------------------------------------------------|
A|--2--4--5--4--5--3--3-----------------------------------------------------|
E|--0--2--3--2--3--1--1-----------------------------------------------------|

  Play this at the end of the song
Suggest correction
What's this?
You can suggest a correction to this tab. Community and Mods will review your correction and vote to approve or reject it.
comments
print report bad tab
1 comment total.
+1 reply
kissAd 67 wrote on February 18 2010, 06:55 pm

the chorus part is wrong, its like
A|--5--6--5--4--------------------------------------------------------------|
E|--3--4--3--2---(2x)-------------------------------------------------------|

guest
You may want to rate the tab now too:
select rating
Please do not post tabs as comments. Select "correction" instead!