Oops, an error
Loading. Please wait.

Easy Bass Tab

version 1
version 1

Whole song

Interactive

by Cro
5,060 views 3 this week
1 commentread comment
1 2 3 4 5
accurate
x 6
add to favorites
launch autoscroll
font size
0
reset
guitar tuner
Tab Pro tools
  • play this tab
  • loop segment
  • change instrument
  • show fretboard
  • metronome
Autoscroll
slow
fast
+/-
esc
set tempo
stop
Contributor
Difficulty
novice
Song:       Easy
Interpret:  Cro
Difficulty: Novice
Tuning:     Standard

Just play this the whole song:

G|-------------------------------------------|
D|-------9-----------9--------9-------9--9---|
A|-7-77---1010-1010---10-------109--9-----10-|
E|----------------------8-88-----------------|

That's all. Pretty easy ;)
comments
print report bad tab
1 comment total.
0 reply
Carlos Punkrock wrote on August 24 2012, 02:35 pm


G|-------------------------------------------------|
D|--------9-----------9---------9--------9--9------|
A|-77-77---10-101010---10---------109-99------10---|
E|-----------------------88-88---------------------|

I want to post or [tab]
guest
You may want to rate the tab now too:
select rating
Please do not post tabs as comments. Select "correction" instead!