Oops, an error
Loading. Please wait.

Wir Sind Da Tab

by Cro
1,056 views 1 this week
no commentswrite comment
1 2 3 4 5
3 more votes to show rating
add to favorites
launch autoscroll
font size
0
reset
how to read this tab
guitar tuner
Autoscroll
slow
fast
+/-
esc
set tempo
stop
Help us to improve Ultimate-Guitar.com Take our survey!
×
Difficulty
intermediate
Cro - Wir sind Da


Intro:

e----------------------------------|
b----------------------------------|
g----------------------------------|
d-------------------------------24-|
a-----------------5-5-5-5-4-4-44---|
e-2-2-2-245-5-5-5------------------|

e----------------------------------|
b----------------------------------|
g----------------------------------|
d----------------------------------|
a-----------------540-540-540-540--|
e-2-2-2-245-5-5-5----2---2---2---2-|

Chorus 1:

3x
e----------------------------------|
b----------------------------------|
g----------------------------------|
d-------------------------------24-|
a-----------------5-5-5-5-4-4-44---|
e-2-2-2-245-5-5-5------------------|

e----------------------------------|
b----------------------------------|
g----------------------------------|
d----------------------------------|
a-----------------540-540-540-540--|
e-2-2-2-245-5-5-5----2---2---2---2-|


at 0:43:

e--------------------------------|
b--------------------------------|
g--------------------------------|
d-----------------------------24-|
a---------------5-5-5-5-4-4-44---|
e-2-2-245-5-5-5------------------|

e----------------------------------|
b----------------------------------|
g----------------------------------|
d-------------------------------24-|
a-----------------5-5-5-5-4-4-44---|
e-2-2-2-245-5-5-5------------------|


e----------------------------------|
b----------------------------------|
g----------------------------------|
d-------------------------------24-|
a-----------------5-5-5-5-4-4-44---|
e-2-2-2---5-5-5--------------------|

e----------------------------------|
b----------------------------------|
g----------------------------------|
d----------------------------------|
a-----------------540-540-540-540--|
e-2-2-2-245-5-5-5----2---2---2---2-|


Chorus 2:

same as Chorus 1


at 1:34:

e--------------------------------|
b--------------------------------|
g--------------------------------|
d-----------------------------24-|
a-----------------------4-4-44---|
e-2-2-245-5-5-5------------------|

e----------------------------------|
b----------------------------------|
g----------------------------------|
d-------------------------------24-|
a-----------------5-5-5-5-4-4-44---|
e-2-2-2-245-5-5-5------------------|

e----------------------------------|
b----------------------------------|
g----------------------------------|
d-------------------------------24-|
a-----------------5-5-5-5-4-4-44---|
e-2-2-2---5-5-5--------------------|

e----------------------------------|
b----------------------------------|
g----------------------------------|
d----------------------------------|
a-----------------540-540-540-540--|
e-2-2-2-245-5-5-5----2---2---2---2-|


Chorus 3:

same as Chorus 1 & 2

Lyrics:


Chorus 1:

 Ich bin wieder da. Yeah.
 Und sie behaupten Rap wäre tot, doch wenn ich komm' macht es: Bam!
 Denn meine Mukke macht dich froh, jeder sagt: Es macht so Spaß!
 Also werf' deinen Arm jetzt hoch, wenn du fühlst wie ich, schrei: Jaa!

Verse 1:

 Yeah. Gott sei Dank, es ist endlich vorbei,
 nie wieder Langeweile und verschwendete Zeit.
 So lange gab es keinen MC am Mic,
 der mehr liefern kann als nur MP3.
 Ich erkenn' den Hype und brenn' den Scheiß,
 ich muss es nicht erwähnen um ein Gangster zu sein. Yeah.
 N-N-N-Nein, Mann, es geht von allein
 wie ein Baby mit zwei, du verstehst was ich mein.
 Wie du lebst für den Scheiß? L-L-Liebst du den Scheiß?
 S-S-Sorry, bei dir geht nichts, dreht nie 'n Style!
 Seht es doch ein, Cro schlägt wieder ein,
 und die ganze Welt ist froh, denn sie sehen...

Chorus 2:

 Ich bin wieder da. Yeah.
 Und sie behaupten Rap wäre tot, doch wenn ich komm' macht es: Bam!
 Denn meine Mukke macht dich froh, jeder sagt: Es macht so Spaß!
 Also werf' deinen Arm jetzt hoch, wenn du fühlst wie ich, schrei: Jaa!

Verse 2:

 Yeah. Zweiter Part, wenn ich sage ich bin da,
 würd' ich jeden hier belügen, ich komm' grade erst in Fahrt.
 Wenn du sagst: Ich komm' grade erst in Fard!
 Liegt ein Rapper vor dir und du klebst direkt an seinem Arsch.
 Kein Disrespekt, ich bin da mit 'nem Auftrag,
 ich bin dein Mann, ganz egal was deine Frau sagt. Yeah.
 Also schreib' dir meinen Namen lieber auf,
 C-R-O ist wie deine Nase und ein Faustschlag. Bam.
 Ich hab' es drauf, sag', sag' es jedem laut,
 C-C-Cro ist zurück und verrückt so wie South Park.
 Manche sagen dieser Track hier reicht,
 und ich mach' immer weiter bis der Allerletzte weiss...

Chorus 3:
 Ich bin wieder da. Yeah.
 Und sie behaupten Rap wäre tot, doch wenn ich komm' macht es: Bam!
 Denn meine Mukke macht dich froh, jeder sagt: Es macht so Spaß!
 Also werf' deinen Arm jetzt hoch, wenn du fühlst wie ich, schrei: Jaa!



Hope there are no mistakes!

Have Fun!
Suggest correction
Give kudos to tab author, rate the tab!
1 2 3 4 5
comments
print report bad tab
guest
You may want to rate the tab now too:
select rating
Wanna post a correction for this tab? Suggest correction