Oops, an error
Loading. Please wait.

Legend Of The Spaceborne Killer tab

version 2
version 2

Whole song

Interactive

by Crobot
323 views 6 this week
no commentswrite comment
1 2 3 4 5
3 more votes to show rating
add to favorites
×
Save as Personal and add changes to this tab that will be seen only by you. Learn more ›
×
You can save this tab as Personal to edit and correct it or add notes. All changes will be seen only by you. Learn more »
launch autoscroll
font size
0
reset
how to read this tab
guitar tuner
edit
Autoscroll
slow
fast
+/-
esc
set tempo
stop
Artist: Crobot
Song: Legend of the Spaceborne Killer
Album: Something Suernatural
Tabbed by: gustavoaraujo999@hotmail.com
Tuning: Drop C#

**I'd love to know how he does that delay stuff at the beginning. I've signaled it with ??? on the tab.
**On the recording you can hear 2 guitars but live they only play with one. I only tabbed one.
**Props to the first tab, it was mostly correct and helped a lot.


[Intro]
D#|----------------------------------------------------|
A#|-------------------------------------------------0--|
F#|-------------------------------------------------0--|
C#|-2---b3--br2--b3--br2~~--??????-----------------/0--|
G#|-2---b3--br2--b3--br2~~-------------------------/---|
C#|-2---b3--br2--b3--br2~~-------------------------/---|

D#|---------------------------------------|
A#|---------------------------------------|
F#|-------------------------7---7h99-7h99-|
C#|-----------5---7h99-7h99---------------| [x2]
G#|-5h77-5h77-----------------------------|
C#|---------------------------------------|


[Verse]
D#|------------------------------------------------------------|
A#|------------------0-----------------------------------------|
F#|------------------0-----------------------------------------| [x3]
C#|-2~--------------/0----------------2-------------2----------|
G#|-2~--------------/------5h77-5h77--2--5h77-5h77--2--5h77----|
C#|-2~--------------/-----------------2-------------2-------8\-|

D#|------------------------------------------------------------|
A#|-----------+7----^------------------------------------------|
F#|-----------+12---^---------------???????????----------------|
C#|-2~---------------------------------------------------------|
G#|-2~--------natural harmonics--------------------------------|
C#|-2~---------------------------------------------------------|


[Chorus 1]
D#|------------------|-------12-----------------------------------------------------|
A#|------------------|----------15b17---15b17-12-15---12----------------------------|
F#|------------------|-14/16-----------------------14----14b16---14b16br14p12-14-12-|
C#|-5-5-5-5--7-7-7-7-|--------------------------------------------------------------|
G#|-5-5-5-5--7-7-7-7-|--------------------------------------------------------------|
C#|-5-5-5-5--7-7-7-7-|--------------------------------------------------------------|

D#|---------------------------|-----------------------------|
A#|-------------------------0-|-----------------------------|
F#|-------------------------0-|-----------------------------|
C#|-5-5-5-5--7-7-7-7-------/0-|--------2--------x0---0------|
G#|-5-5-5-5--7-7-7-7-------/--|-----------------x0---0------|
C#|-5-5-5-5--7-7-7-7-------/--|-2-0-2-----0-2-2-x0---0------|

D#|---------------------------------------------------------|
A#|---------------------------------------3-----------------|
F#|---------------------------------------2----2------------|
C#|-5-5-5-5--7-7-7-7--2-2-202--2-20202----0----2------------|
G#|-5-5-5-5--7-7-7-7--2-2-202--2-20202---------0------------|
C#|-5-5-5-5--7-7-7-7--2-2-202--2-20202---------------14\\\\-|


[Interlude]
D#|---------------------------------------|
A#|---------------------------------------|
F#|-------------------------7---7h99-7h99-|
C#|-----------5---7h99-7h99---------------| [x2]
G#|-5h77-5h77-----------------------------|
C#|---------------------------------------|


[Verse 2]
D#|------------------------------------------------------------|
A#|------------------0-----------------------------------------|
F#|------------------0-----------------------------------------| [x3]
C#|-2~--------------/0----------------2-------------2----------|
G#|-2~--------------/------5h77-5h77--2--5h77-5h77--2--5h77----|
C#|-2~--------------/-----------------2-------------2-------8\-|

D#|-----------+7----^------------------------------------------|
A#|-----------+7----^------------------------------------------|
F#|---------------------------------???????????----------------|
C#|-2~---------------------------------------------------------|
G#|-2~--------natural harmonics--------------------------------|
C#|-2~---------------------------------------------------------|


[Chorus 2]
D#|------------------|-------------------------------------------------12-----------|
A#|------------------|----------------------------------------------------15b17-----|
F#|------------------|--14b16br14p12-14-12---12----------12------14/16--------------|
C#|-5-5-5-5--7-7-7-7-|--------------------------14-12-14----------------------------|
G#|-5-5-5-5--7-7-7-7-|--------------------------------------------------------------|
C#|-5-5-5-5--7-7-7-7-|--------------------------------------------------------------|

D#|---------------------------|----------------------------|
A#|-------------------------0-|----------------------------|
F#|-------------------------0-|----------------------------|
C#|-5-5-5-5--7-7-7-7-------/0-|--------2-------x0---0------|
G#|-5-5-5-5--7-7-7-7-------/--|----------------x0---0------|
C#|-5-5-5-5--7-7-7-7-------/--|-2-0-2----0-2-2-x0---0------|

D#|---------------------------------------------------------|
A#|---------------------------------------3-----------------|
F#|---------------------------------------2----2------------|
C#|-5-5-5-5--7-7-7-7--2-2-202--2-20202----0----2------------|
G#|-5-5-5-5--7-7-7-7--2-2-202--2-20202---------0------------|
C#|-5-5-5-5--7-7-7-7--2-2-202--2-20202---------------14\\\\-|
 

[Bridge]
D#|---------------------------------------------|----------------------------------|
A#|--15b17--15----------------------------------|-15b17--15--12-15b17-15-12--12----|
F#|----------------14-12-14b15br14-12-----------|----------------------------14b16-|
C#|-----------------------------------14-12-14--|----------------------------------|
G#|---------------------------------------------|----------------------------------|
C#|---------------------------------------------|----------------------------------|

D#|---------------------------------------------|-----------------------------------|
A#|--15b17--15----------------------------------|-12h15p12-11h14p11-10h13p10-9h12p9-|
F#|----------------14-12-14b15br14-12-----------|-----------------------------------|
C#|-----------------------------------14-12-14\-|-----------------------------------|
G#|---------------------------------------------|-----------------------------------|
C#|---------------------------------------------|-----------------------------------|


[Bridge 2]
D#|-----------------------------|-------------------------|
A#|-----------------------------|-------------------------|
F#|-----------------------------|-------------------------|
C#|---------5--7-5-7b9br7-5-----|---------5--7-5-7b9br7---|
G#|-7-7-5/7-----------------7-5-|-7-7-5/7-----------------|
C#|-----------------------------|-------------------------|

D#|--------------------------------|--------------------------------------|
A#|--------------------------------|--------------------------------------|
F#|--------------------7-----------|--------------------------------------|
C#|---------5--7-5-7/9---9\7-5-----|---------5--7-5-7b9br7-5--------------|
G#|-7-7-5/7--------------------7-5-|-7-7-5/7-----------------7-5-7~--???--|
C#|--------------------------------|--------------------------------------|


[Bridge 3]
D#|-2------------------------------------|-2------------------------------------|
A#|-3------------------------------------|-3------------------------------------|
F#|-2--------2--------4---4-----------4--|-2--------2--------4---4-----------4--|
C#|-0--------2--------4---4--------------|-0--------2--------4---4--------------|
G#|----------0--------------------4/6----|----------0--------------------4/6----|
C#|--------------------------------------|--------------------------------------|

D#|-2------------------------------------|-2------------------------------------|
A#|-3------------------------------------|-3------------------------------------|
F#|-2--------2--------4---4-----------4--|-2--------2---------------------------|
C#|-0--------2--------4---4--------------|-0--------2---------------------------|
G#|----------0--------------------4/6----|----------0---------------------------|
C#|--------------------------------------|--------------------------------------|


[Bridge 4]
D#|-----------------------------------------------------------------------|
A#|---------------------------------------------(I play a 5   here )------|
F#|--------------------------------7-9----????--(         7b9      )------|
C#|--------------------------5-7-9----------------------------------------|
G#|-7--7-5-7--7-5-7--7---5-7----------------------------------------------|
C#|-----------------------------------------------------------------------|


[Outro]
D#|-----------------------------|-------------------------|
A#|-----------------------------|-------------------------|
F#|-----------------------------|-------------------------|
C#|---------5--7-5-7b9br7-5-----|---------5--7-5-7b9br7---|
G#|-7-7-5/7-----------------7-5-|-7-7-5/7-----------------|
C#|-----------------------------|-------------------------|

D#|--------------------------------|--------------------------------------|
A#|--------------------------------|--------------------------------------|
F#|--------------------7-----------|--------------------------------------|
C#|---------5--7-5-7/9---9\7-5-----|---------5--7-5-7b9br7-5----0-2~------|
G#|-7-7-5/7--------------------7-5-|-7-7-5/7-----------------7--0-2~------|
C#|--------------------------------|----------------------------0-2~------|


==== Legend ====

~ = let ring
/ = slide
+ = natural harmonic
^ = slight bend
h = hammer-on
p = pull-off
b = bend
br = bend release
??? = ungodly sound using pedals


Please rate and comment!

            
            
Suggest correction
Creating personal tab
Creating personal tab
You can edit any tab online and save it as your Personal.

You can edit, replace or remove any tab part or add personal notes – all changes will be seen only by you.

Personal tabs can be accessed anytime from any device, even offline.
Learn more »
Give kudos to tab author, rate the tab!
1 2 3 4 5
comments
print report bad tab
guest
You may want to rate the tab now too:
select rating
Wanna post a correction for this tab? Suggest correction