Oops, an error
Loading. Please wait.

Skull Of Geronimo tab

version 2
version 2

Whole song

by Crobot
251 views 1 this week
no commentswrite comment
1 2 3 4 5
3 more votes to show rating
add to favorites
×
Save as Personal and add changes to this tab that will be seen only by you. Learn more ›
×
You can save this tab as Personal to edit and correct it or add notes. All changes will be seen only by you. Learn more »
launch autoscroll
font size
0
reset
how to read this tab
guitar tuner
edit
Autoscroll
slow
fast
+/-
esc
set tempo
stop
Artist: Crobot
Song: Skull of Geronimo
Album: Something Supernatural
Tabbed by: gustavoaraujo999@hotmail.com
Tuning: Drop C#


[Intro]
D#|--------------------------|
A#|--------------------------|
F#|--------------------------|
C#|--------------------------|
G#|-------5~~----------------|
C#|-0~~----------------------|

D#|--------------------------|-----------------------------|
A#|--------------------------|-----------------------------|
F#|--------------------------|-----------------------------|
C#|------3-------------------|------3----------x-x-x-x-x-x-|
G#|-5-------5-3-5-5------3-5-|-5-------5-3-5-5-x-x-x-x-x-x-|
C#|---0--------------3-5-----|---0-------------x-x-x-x-x-x-|

D#|--------------------------|-----------------------------|
A#|--------------------------|-----------------------------|
F#|--------------------------|-----------------------------|
C#|-x-0--3-------------------|----0-3--5--6--5--3---0~-----|
G#|-x-0-----5-3-5-5------3-5-|-5--0-3--5--6--5--3---0~-----|
C#|-x-0--------------3-5-----|----0-3--5--6--5--3---0~-----|


[Verse]
D#|---------------------------------------------|
A#|---------------------------------------------|
F#|-14--14--14--14--17\----11/12\11-11/12-12/14-|
C#|-x---x---x---x---x------x--x--x--x--x--x--x--|
G#|-12--12--12--12--15\----9-/10\9--9--10-10-12-|
C#|---------------------------------------------|

D#|----------------------------------------------------10///--------------|
A#|----------------------------------------------------10///--------------|
F#|----------------------------------10^-------10^------------------------|
C#|-------10-12--------10-12-------------12-10-----12---------------------|
G#|-10-12--------10-12---------10-12--------------------------------------|
C#|-----------------------------------------------------------------------|

D#|---------------------------------------------|
A#|---------------------------------------------|
F#|-14--14--14--14--17\----11/12\11-11/12-12/14-|
C#|-x---x---x---x---x------x--x--x--x--x--x--x--|
G#|-12--12--12--12--15\----9-/10\9--9--10-10-12-|
C#|---------------------------------------------|

D#|---------------------------------------------|
A#|---------------------------------------------|
F#|-12/14\12-11-11/12-12---/14--12--11-11/12\11-|
C#|-x--------x--x--x--x-----x---x---x--x--x--x--|
G#|-10/12\10-9--9--10-10----12--10--9--9--10-9--|
C#|---------------------------------------------|

D#|---------------------------------------------|
A#|---------------------------------------------|
F#|-14--14--14--14--17\----11/12\11-11/12-12/14-|
C#|-x---x---x---x---x------x--x--x--x--x--x--x--|
G#|-12--12--12--12--15\----9-/10\9--9--10-10-12-|
C#|---------------------------------------------|

D#|-----------------------------------------------------------------------|
A#|-----------------------------------------------------------------------|
F#|-----------------------------------------------------------------------|
C#|-------10-12--------10-12---------10-12--------10-12--------10-12------|
G#|-10-12--------10-12---------10-12--------10-12--------10-12------------|
C#|-----------------------------------------------------------------------|


[Pre-chorus]
D#|------------------------------------|
A#|-----------------------------10^----|
F#|-8/9-1010101010101010-12\----10^----|
C#|-8/9-1010101010101010-12\--------12-|
G#|-6/7-8-8-8-8-8-8-8-8--10\-----------|
C#|------------------------------------|


[Chorus]
D#|--------------------------|-----------------------------|
A#|--------------------------|-----------------------------|
F#|--------------------------|-----------------------------|
C#|------3-------------------|------3----------x-x-x-x-x-x-|
G#|-5-------5-3-5-5------3-5-|-5-------5-3-5-5-x-x-x-x-x-x-|
C#|---0--------------3-5-----|---0-------------x-x-x-x-x-x-|

D#|--------------------------|---------------------------------|
A#|--------------------------|---------------------------------|
F#|--------------------------|-------------12b14--12-10--------|
C#|-x-0--3-------------------|------3-------------------12-10--|
G#|-x-0-----5-3-5-5------3-5-|-5-------5-3---------------------|
C#|-x-0--------------3-5-----|---0-----------------------------|

D#|--------------------------|-----------------------------|
A#|--------------------------|-----------------------------|
F#|--------------------------|-----------------------------|
C#|------3-------------------|------3----------x-x-x-x-x-x-|
G#|---------5-3-5-5------3-5-|-5-------5-3-5-5-x-x-x-x-x-x-|
C#|12-0--------------3-5-----|---0-------------x-x-x-x-x-x-|

D#|--------------------------|---------------------------------|
A#|--------------------------|---------------------------------|
F#|--------------------------|---------------12----10----------|
C#|-x-0--3-------------------|------3--------x-----x-----------|
G#|-x-0-----5-3-5-5------3-5-|-5-------5-3---10----8-----------|
C#|-x-0--------------3-5-----|---0-----------------------------|


[Verse 2]
D#|---------------------------------------------|
A#|---------------------------------------------|
F#|-14--14--14--14--17\----11/12\11-11/12-12/14-|
C#|-x---x---x---x---x------x--x--x--x--x--x--x--|
G#|-12--12--12--12--15\----9-/10\9--9--10-10-12-|
C#|---------------------------------------------|

D#|----------------------------------------------------10///--------------|
A#|----------------------------------------------------10///--------------|
F#|----------------------------------10^-------10^------------------------|
C#|-------10-12--------10-12-------------12-10-----12---------------------|
G#|-10-12--------10-12---------10-12--------------------------------------|
C#|-----------------------------------------------------------------------|

D#|---------------------------------------------|
A#|---------------------------------------------|
F#|-14--14--14--14--17\----11/12\11-11/12-12/14-|
C#|-x---x---x---x---x------x--x--x--x--x--x--x--|
G#|-12--12--12--12--15\----9-/10\9--9--10-10-12-|
C#|---------------------------------------------|

D#|---------------------------------------------|
A#|---------------------------------------------|
F#|-12/14\12-11-11/12-12---/14--12--11-11/12\11-|
C#|-x--------x--x--x--x-----x---x---x--x--x--x--|
G#|-10/12\10-9--9--10-10----12--10--9--9--10-9--|
C#|---------------------------------------------|

D#|---------------------------------------------|
A#|---------------------------------------------|
F#|-14--14--14--14--17\----11/12\11-11/12-12/14-|
C#|-x---x---x---x---x------x--x--x--x--x--x--x--|
G#|-12--12--12--12--15\----9-/10\9--9--10-10-12-|
C#|---------------------------------------------|

D#|-----------------------------------------------------------------------|
A#|-----------------------------------------------------------------------|
F#|-----------------------------------------------------------------------|
C#|-------10-12--------10-12---------10-12--------10-12--------10-12------|
G#|-10-12--------10-12---------10-12--------10-12--------10-12------------|
C#|-----------------------------------------------------------------------|


[Pre-chorus]
D#|------------------------------------|
A#|-----------------------------10^----|
F#|-8/9-1010101010101010-12\----10^----|
C#|-8/9-1010101010101010-12\--------12-|
G#|-6/7-8-8-8-8-8-8-8-8--10\-----------|
C#|------------------------------------|


[Chorus]
D#|--------------------------|-----------------------------|
A#|--------------------------|-----------------------------|
F#|--------------------------|-----------------------------|
C#|------3-------------------|------3----------x-x-x-x-x-x-|
G#|-5-------5-3-5-5------3-5-|-5-------5-3-5-5-x-x-x-x-x-x-|
C#|---0--------------3-5-----|---0-------------x-x-x-x-x-x-|

D#|--------------------------|---------------------------------|
A#|--------------------------|---------------------------------|
F#|--------------------------|-------------12b14--12-10--------|
C#|-x-0--3-------------------|------3-------------------12-10--|
G#|-x-0-----5-3-5-5------3-5-|-5-------5-3---------------------|
C#|-x-0--------------3-5-----|---0-----------------------------|

D#|--------------------------|-----------------------------|
A#|--------------------------|-----------------------------|
F#|--------------------------|-----------------------------|
C#|------3-------------------|------3----------x-x-x-x-x-x-|
G#|---------5-3-5-5------3-5-|-5-------5-3-5-5-x-x-x-x-x-x-|
C#|12-0--------------3-5-----|---0-------------x-x-x-x-x-x-|

D#|--------------------------|---------------------------------|
A#|--------------------------|---------------------------------|
F#|--------------------------|---------------12----10----------|
C#|-x-0--3-------------------|------3--------x-----x-----------|
G#|-x-0-----5-3-5-5------3-5-|-5-------5-3---10----8-----------|
C#|-x-0--------------3-5-----|---0-----------------------------|


[Bridge]
D#|--------------|-------------|--------------------|---------------|
A#|--------------|-------------|--------------------|---------------|
F#|--------------|-------------|--------------------|---------------|
C#|--------------|-3^----------|---------------0--0-|-3^------------|
G#|-5-3-5--------|----5--5-3---|---------------0--0-|----5--5-3-----|
C#|--------5-3-0-|-----------5-|--5-3-5-6-5-3--0--0-|-----------5-3-|

D#|--------------|-------------|--------------------|---------------|
A#|--------------|-------------|--------------------|---------------|
F#|--------------|-------------|--------------------|---------------|
C#|--------------|-3^----------|---------------0--0-|-3--5--6--10---|
G#|-5-3-5--------|----5--5-3---|---------------0--0-|-3--5--6--10---|
C#|--------5-3-0-|-----------5-|--5-3-5-6-5-3--0--0-|-3--5--6--10---|


[Chorus 2]
D#|-----------------------------------------------------------------------|
A#|------------------------------------------------scratches like chorus--|
F#|-----------------------------------------------------|
C#|----------------------------------------------------x-x--x-x--x-x--x---|
G#|----------------------------------------------------x-x--x-x--x-x--x---|
C#|----------------------------------------------------x-x--x-x--x-x--x---|

D#|--------------------------|---------------------------------|
A#|--------------------------|---------------------------------|
F#|--------------------------|-------------12b14--12-10--------|
C#|-x-0--3-------------------|------3-------------------12-10--|
G#|-x-0-----5-3-5-5------3-5-|-5-------5-3---------------------|
C#|-x-0--------------3-5-----|---0-----------------------------|

D#|--------------------------|-----------------------------|
A#|--------------------------|-----------------------------|
F#|--------------------------|-----------------------------|
C#|------3-------------------|------3----------x-x-x-x-x-x-|
G#|---------5-3-5-5------3-5-|-5-------5-3-5-5-x-x-x-x-x-x-|
C#|12-0--------------3-5-----|---0-------------x-x-x-x-x-x-|


D#|--------------------------|---------------------------------|
A#|--------------------------|---------------------------------|
F#|--------------------------|---------------12----10----------|
C#|-x-0--3-------------------|------3--------x-----x-----------|
G#|-x-0-----5-3-5-5------3-5-|-5-------5-3---10----8-----------|
C#|-x-0--------------3-5-----|---0-----------------------------|


[Interlude 2]
D#|-----------------------------------------------------------------------|
A#|-----------------------------------------------------------------------|
F#|-----------------------------------------------------------------------|
C#|-x-x-x-x-x-x-x-x----------------------|
G#|-x-x-x-x-x-x-x-x-------------------------------------------------------|
C#|-x-x-x-x-x-x-x-x-------------------------------------------------------|


[Bridge 2]
D#|--------------|-------------|--------------------|---------------|
A#|--------------|-------------|--------------------|---------------|
F#|--------------|-------------|--------------------|---------------|
C#|--------------|-3^----------|---------------0--0-|-3^------------|
G#|-5-3-5--------|----5--5-3---|---------------0--0-|----5--5-3-----|
C#|--------5-3-0-|-----------5-|--5-3-5-6-5-3--0--0-|-----------5-3-|

D#|--------------|-------------|--------------------|---------------|
A#|--------------|-------------|--------------------|---------------|
F#|--------------|-------------|--------------------|---------------|
C#|--------------|-3^----------|---------------0--0-|-3--5--6--5--3-|
G#|-5-3-5--------|----5--5-3---|---------------0--0-|-3--5--6--5--3-|
C#|--------5-3-0-|-----------5-|--5-3-5-6-5-3--0--0-|-3--5--6--5--3-|

D#|--------------|-------------|--------------------|---------------|
A#|--------------|-------------|--------------------|---------------|
F#|--------------|-------------|--------------------|---------------|
C#|--------------|-3^----------|---------------0--0-|-3^------------|
G#|-5-3-5--------|----5--5-3---|---------------0--0-|----5--5-3-----|
C#|--------5-3-0-|-----------5-|--5-3-5-6-5-3--0--0-|-----------5-3-|

D#|--------------|-------------|--------------------|---------------|
A#|--------------|-------------|--------------------|---------------|
F#|--------------|-------------|--------------------|---------------|
C#|--------------|-3^----------|---------------0--0-|-3--5--6--5--3-|
G#|-5-3-5--------|----5--5-3---|---------------0--0-|-3--5--6--5--3-|
C#|--------5-3-0-|-----------5-|--5-3-5-6-5-3--0--0-|-3--5--6--5--3-|
 

[Outro]
D#|--------------------------|
A#|--------------------------|
F#|--------------------------|
C#|-000-333-555-666-10---0~--|
G#|-000-333-555-666-10---0~--|
C#|-000-333-555-666-10---0~--|


==== Legend ====
~ = let ring
/ = slide
* = natural harmonic
+ = artificial harmonic
x = muted note
h = hammer-on
p = pull-off
^ = slight bend
b = bend
br = bend release
??? = ungodly sound using pedals


Please rate and comment!
Suggest correction
Creating personal tab
Creating personal tab
You can edit any tab online and save it as your Personal.

You can edit, replace or remove any tab part or add personal notes – all changes will be seen only by you.

Personal tabs can be accessed anytime from any device, even offline.
Learn more »
Give kudos to tab author, rate the tab!
1 2 3 4 5
comments
print report bad tab
guest
You may want to rate the tab now too:
select rating
Wanna post a correction for this tab? Suggest correction