Oops, an error
Loading. Please wait.

Will You Still Care chords

22 views 3 this week
no commentswrite comment
1 2 3 4 5
2 more votes to show rating
add to favorites
×
Save as Personal and add changes to this tab that will be seen only by you. Learn more ›
×
You can save this tab as Personal to edit and correct it or add notes. All changes will be seen only by you. Learn more »
launch autoscroll
font size
0
reset
transpose
0
reset
display chords
guitar tuner
edit
Autoscroll
slow
fast
+/-
esc
set tempo
stop
Author
Difficulty
About this tab version
This tab is based on the demo version of the song which was released on a magazine cover CD in 1997 sponsored by XFM: https://www.youtube.com/watch?v=VYCb2y1mIK4. Was this info helpful? Yes No
Strumming
There is no strumming pattern for this song yet. and get +5 IQ
This tab is based on the demo version of the song which was released on a magazine cover CD in 1997 sponsored
by XFM: 
https://www.youtube.com/watch?v=VYCb2y1mIK4

[Verse 1]
D                A
Will you still care for me
     G               A                     
When I lie dead and crumpled at the
D              A
Bottom of your ten storey
G         A
High rise flats.
D             A
I can be your rubber man
        G               A        
You can scoop me up and put me in a can
    D       A            G         A
And bury me underneath a stone
D            A              G    A         D 
A stone that says that I am only 19 years old 
A         G       A  
D              A            G
Will you still care for me?
A   A   A   A  
No, no, no, no,

[Chorus]
                D                         A           
I don't fucking think so, I don't fucking think so,
                  Bm
You're just gonna let it go
                 G 
You said there is no
Specific story line.

[Verse 2]
D            A                G
I am just a figure on a stone mountain
                    A                       D
I think I'd like to jump and float into the sky,
       A                   G     
By and by I will reach the bottom
          A            
I will be dead and crumpled
D               A          G         A           D
Underneath your ten storey high rise flats
               A               G
Will you still care for me?
A   A   A   A
No, no, no, no,

[Chorus]
                D                          A        
I don't fucking think so, I don't fucking think so,
                Bm                        G
I don't fucking think so, I don't fucking think so,
                D                         A        
I don't fucking think so, I don't fucking think so,
                  Bm
You're just gonna let it go
              G
I just wanna know,

[Solo]
(Play this part twice)
e|-----------------------|-----------------------|---------------------------|------------------------------|
B|-----------------------|-----------------------|---------------------------|------------------------------|
G|------------------9--7-|------------------7--6-|-6--7--7/9--7--6--6h7p6----|---------7--9--9b11b9--7------|
D|---------------7-------|---------------7-------|------------------------9--|---7--9-----------------------|
A|-------5--7/9----------|-------5--7/9----------|---------------------------|--------------------------10--|
E|-5--7------------------|-5--7------------------|---------------------------|------------------------------|

(Then play this part)
e|------------------------------------------|---------------------------|-----------------------------------|
B|-7--8/10--8--7--5------10--10/12--12--10--|-7--10--7-----7------------|----------------7--10/12--10-------|
G|--------------------7---------------------|-----------9-----9--7------|---------7--9----------------------|
D|------------------------------------------|------------------------9--|--7--9-----------------------------|
A|------------------------------------------|---------------------------|-----------------------------------|
E|------------------------------------------|---------------------------|-----------------------------------|

[Verse 3]
(Uses the chord pattern of the chorus)
                            D
You said you're a beautiful woman
             A
But I've got something to say
                 Bm
I've been to the factory
                G
Where women are made
                    D
I've seen what they do to them
                    A
I've seen what they put inside
                     Bm
And now I'm going to stay away
            G
Cos I found out
                 D
That girls aren't made
                A
From all things nice
             Bm
Girls aren't made
             G
From sugar & spice
             D
So let it go slow
             A
Ah let it go slow,
          Bm
Let it go slow,
   G
Cos I,

[Chorus]
                D                          A        
I don't fucking think so, I don't fucking think so,
                Bm                        G
I don't fucking think so, I don't fucking think so,
                D                         A        
I don't fucking think so, I don't fucking think so,
                  Bm
You're just gonna let it go
             G
I just wanna know,
N.C.
Will you still care for me?
Suggest correction
Creating personal tab
Creating personal tab
You can edit any tab online and save it as your Personal.

You can edit, replace or remove any tab part or add personal notes – all changes will be seen only by you.

Personal tabs can be accessed anytime from any device, even offline.
Learn more »
Give kudos to tab author, rate the tab!
1 2 3 4 5
comments
print report bad tab
guest
You may want to rate the tab now too:
select rating
Wanna post a correction for this tab? Suggest correction