Oops, an error
Loading. Please wait.

Nightmare tab

version 2
version 2

Whole song

Interactive

3,900 views 1 this week
1 commentread comment
1 2 3 4 5
x 3
add to favorites
×
Save as Personal and add changes to this tab that will be seen only by you. Learn more ›
×
You can save this tab as Personal to edit and correct it or add notes. All changes will be seen only by you. Learn more »
launch autoscroll
font size
0
reset
how to read this tab
guitar tuner
backing track
0:00
0:00
edit
Autoscroll
slow
fast
+/-
esc
set tempo
stop
Author
Difficulty
Sorry no intro or solo or bridge but the chorus n verse are good.

Chorus:

E:----------------------------------------------------------|
B:----------------------------------------------------------|
G:----------------------------------------------------------|
D:--2-------5--7---2-------7--5-----2------5--5----9-7-5-4--| x2
A:--2-------5--7---2-------7--5-----2------5--7----9-7-5-4--|
E:--0--0-0--3--5-0-0--0-0--5--3-----0--0-0-3--5-0--7-5-3-2--|
     pm. .       .    . .              . .      .


Verse:

E:--------------------------------------------------------------------------|
B:--------------------------------------------------------------------------|
G:--------------------------------------------------------------------------|
D:-------------5------------------------5------------------------5----------|
A:-------------5------------------------5------------------------5----------|
E:0-0-0--0--0--3--0--0--0--0-0-0--0--0--3--0--0--0--0-0-0--0--0--3--0--0--0-|
pm. . .  .  .     .  .  .  . . .  .  .     .  .  .  . . .  .  .     .  .  .
E:----------------------------|
B:----------------------------|
G:----------------------------|
D:----------------------------| x4
A:----------------------------|
E:7-7-7--5-5-5--3-3-3--2-2-2--|
pm. . .  . . .  . . .  . . .

            
            
Suggest correction
Creating personal tab
Creating personal tab
You can edit any tab online and save it as your Personal.

You can edit, replace or remove any tab part or add personal notes – all changes will be seen only by you.

Personal tabs can be accessed anytime from any device, even offline.
Learn more »
Give kudos to tab author, rate the tab!
1 2 3 4 5
comments
print report bad tab
1 comment total.
0 reply
ShreddyKickflip 21 Oct 08, 2008 02:12 PM

not bad, little typo on the 7,7,5 power chord- first line second time. other wise you pretty much got it.

guest
You may want to rate the tab now too:
select rating
Wanna post a correction for this tab? Suggest correction