Oops, an error
Loading. Please wait.

Nightmare tab

version 4
version 4

Whole song

Interactive

49,444 views 6 this week
26 commentsread comments
1 2 3 4 5
x 46
add to favorites
×
Save as Personal and add changes to this tab that will be seen only by you. Learn more ›
×
You can save this tab as Personal to edit and correct it or add notes. All changes will be seen only by you. Learn more »
launch autoscroll
font size
0
reset
how to read this tab
guitar tuner
backing track
0:00
0:00
edit
Autoscroll
slow
fast
+/-
esc
set tempo
stop
Author
Difficulty
----------------------------------------------------------------------------
                         Nightmare - Crooked X
----------------------------------------------------------------------------
Tabbed By: Metallica-fan
Email: Metallica_fan@live.com

Tunning: Standard
Sorry 'bout my earlier mistakes.
I'd like to thank Knoodly for the tip.

e|-12----10-(10)-10-12-------------12----10-(10)----12---------|
B|-12-12-10-(10)-10-12-12-(12)-----12-12-10-(10)-10-12-12-(12)-|
G|----12---------------12-(12)--------12----------9----12-(12)-|
D|-------------------------------------------------------------|
A|-------------------------------------------------------------|
E|-------------------------------------------------------------|

Play this 3X

e|-12-----------------------------------------------------------------|
B|------12---13---10---12---------------------------------------------|
G|---9-9--9-9--9-9--9-9--9-12-9-14-9-9-11-9-9-12-9-9-14-9-9-12-9-11-9-|
D|--------------------------------------------------------------------|
A|--------------------------------------------------------------------|
E|--------------------------------------------------------------------|

Play this 2X

e|------------------------------------------|
B|------------------------------------------|
G|------------------------------------------|
D|-------------------------------4----------|
A|-2-----5-7-2-----7-5-2-----5-7-2-7-5-4----|
E|-0-0-0-3-5-0-0-0-5-3-0-0-0-3-5---5-3-2----|
Pm:  . .       . .       . .

Play this 3X

e|------------------------------------------------------------------|
B|------------------------------------------------------------------|
G|------------------------------------------------------------------|
D|------------------------------------------------------------------|
A|---------5---------------5---------------5-------222--------------|
E|-000-0-0-3-0-0-0-000-0-0-3-0-0-0-000-0-0-3-0-0-0-----555-333-222--|
Pm:... . .   . . . ... . .   . . . ... . .   . . . ... ... ... ...

Play this in place of whats above on the forth time through.

e|-----------------------------------------------------|
B|-----------------------------------------------------|
G|-----------------------------------------------------|
D|-----------------------------------------------------|
A|---------5---------------5-2-2-2-2--2-2-2-2-2-2-2-2--|
E|-000-0-0-3-0-0-0-000-0-0-3-0-0-0-0--0-0-0-0-0-0-0-0--|
Pm:... . .   . . . ... . .   . . . .  . . . . . . . .

Play this 2X

e|------------------------------------------|
B|------------------------------------------|
G|------------------------------------------|
D|-------------------------------4----------|
A|-2-----5-7-2-----7-5-2-----5-7-2-7-5-4----|
E|-0-0-0-3-5-0-0-0-5-3-0-0-0-3-5---5-3-2----|
Pm:  . .       . .       . .

e|------------------------------------------------------------|
B|------------------------------------------------------------|
G|------------------------------------------------------------|
D|---------7--(7)--------------------------7--(7)-------------|
A|-2--(2)--5--(5)--5--(5)--7--(7)--2--(2)--5--(5)--5--(5)--7--|
E|-0--(0)----------3--(3)--5--(5)--0--(0)----------3--(3)--5--|

Play this 2X

e|------------------------------------------|
B|------------------------------------------|
G|------------------------------------------|
D|-------------------------------4----------|
A|-2-----5-7-2-----7-5-2-----5-7-2-7-5-4----|
E|-0-0-0-3-5-0-0-0-5-3-0-0-0-3-5---5-3-2----|
Pm:  . .       . .       . .

Play this 3X

e|------------------------------------------------------------------|
B|------------------------------------------------------------------|
G|------------------------------------------------------------------|
D|------------------------------------------------------------------|
A|---------5---------------5---------------5-------222--------------|
E|-000-0-0-3-0-0-0-000-0-0-3-0-0-0-000-0-0-3-0-0-0-----555-333-222--|
Pm:... . .   . . . ... . .   . . . ... . .   . . . ... ... ... ...

Play this one in place of whats above for the forth time through.

e|-----------------------------------------------------|
B|-----------------------------------------------------|
G|-----------------------------------------------------|
D|-----------------------------------------------------|
A|---------5---------------5------2-2-2-2-2-2-2-2------|
E|-000-0-0-3-0-0-0-000-0-0-3------0-0-0-0-0-0-0-0------|
Pm:... . .   . . . ... . .        . . . . . . . .

Play this 2X

e|------------------------------------------|
B|------------------------------------------|
G|------------------------------------------|
D|-------------------------------4----------|
A|-2-----5-7-2-----7-5-2-----5-7-2-7-5-4----|
E|-0-0-0-3-5-0-0-0-5-3-0-0-0-3-5---5-3-2----|
Pm:  . .       . .       . .

e|------------------------------------------------------------|
B|------------------------------------------------------------|
G|------------------------------------------------------------|
D|---------7--(7)--------------------------7--(7)-------------|
A|-2--(2)--5--(5)--5--(5)--7--(7)--2--(2)--5--(5)--5--(5)--7--|
E|-0--(0)----------3--(3)--5--(5)--0--(0)----------3--(3)--5--|

e|---------------------|
B|---------------------|
G|---------------------|
D|---------------------|
A|-2-----5-7-2-----7-5-|
E|-0-0-0-3-5-0-0-0-5-3-|
Pm:  . .       . .

This is where the solo begins......but I have not figured it out yet, sorry guys. But rate my tab.

| Pm:... Palm Mute
| (0)    Hold the note
Suggest correction
Creating personal tab
Creating personal tab
You can edit any tab online and save it as your Personal.

You can edit, replace or remove any tab part or add personal notes – all changes will be seen only by you.

Personal tabs can be accessed anytime from any device, even offline.
Learn more »
comments
print report bad tab
26 comments total. Showing first comments.
+2 reply
slayer-fan77 10 Mar 11, 2008 02:09 PM

Nice tab, but the part after the intro sounds kinda weird. I think it is right though

-2 reply
Knoodly 10 Mar 27, 2008 01:43 PM

I liked the tab but I think it sounds better if you just change one note:
e|------------------------------------------|
B|------------------------------------------|
G|------------------------------------------|
D|-------------------------------4----------|
A|-2-----4-7-2-----7-4-2-----4-7-2-7-5-4----|
E|-0-0-0-2-5-0-0-0-5-2-0-0-0-2-5---5-3-2----|
Pm: . . ^ . . ^ . . ^
-5- -5- -5-
-3- -3- -3-

That sounds right to me anyways

0 reply
Knoodly 10 Mar 27, 2008 01:44 PM

Change it to this I mean. Post messed up.

e|------------------------------------------|
B|------------------------------------------|
G|------------------------------------------|
D|-------------------------------4----------|
A|-2-----5-7-2-----7-5-2-----5-7-2-7-5-4----|
E|-0-0-0-3-5-0-0-0-5-3-0-0-0-3-5---5-3-2----|

guest
You may want to rate the tab now too:
select rating
Wanna post a correction for this tab? Suggest correction