Oops, an error
Loading. Please wait.

Crooner Tab

145 views 3 this week
no commentswrite comment
1 2 3 4 5
please rate
add to favorites
launch autoscroll
font size
0
reset
how to read this tab
guitar tuner
Tab Pro tools
  • play this tab
  • loop segment
  • change instrument
  • show fretboard
  • metronome
×
Best way to learn
"Crooner"
Autoscroll
slow
fast
+/-
esc
set tempo
stop
The Crooner
Written by: Alex McCormick and Keegan Reardon


Intro

(Play twice, strum each chord once)

      D#                               G#

e--------------------------------------4-------------------------|
B-----8--------------------------------4-------------------------|
G-----8--------------------------------6-------------------------|
D-----8--------------------------------5-------------------------|
A-----6--------------------------------5-------------------------|
E--------------------------------------4-------------------------|

(Play Twice)

      D#

e-------------------------------------------------|
B-----8-------------------------------------------|
G-----8--------7h8p7------------------------------|
D-----8------------------8p6----------------------|
A-----6-------------------------8p6---------------|
E-------------------------------------------------|

(Play Twice)

        G#

e-------4-----------------------------------------|
B-------4-------------------------4---------------|
G-------6-------------------------4---------------|
D-------5-----------------4h6---------------------|
A-------5-----------4h6---------------------------|
E-------4-----------------------------------------|

Pre Chorus (Play twice, second time with lick)

      A#                               G#

e-----6--------------------------------4-------------------------|
B-----6--------------------------------4-------------------------|
G-----7--------------------------------6-------------------------|
D-----8--------------------------------5-------------------------|
A-----8--------------------------------5---------3--4--5--6------|
E-----6--------------------------------4-------------------------|

Chorus  (Ska Beat)

      D#                               G#

e--------------------------------------4-------------------------|
B-----8--------------------------------4-------------------------|
G-----8--------------------------------6-------------------------|
D-----8--------------------------------5-------------------------|
A-----6--------------------------------5-------------------------|
E--------------------------------------4-------------------------|


Second Verse

      D#                      A#       G#

e-----------------------------6--------4-------------------------|
B-------8---------------------6--------4-------------------------|
G-------8---------------------7--------6-------------------------|
D-------8---------------------8--------5-------------------------|
A-------6---------------------8--------5-------------------------|
E-----------------------------6--------4-------------------------|


Order:
Intro
Verse 1
Pre Chorus 1
Chorus
Verse 2
Pre Chorus 2
Chorus
Solo
(Boss DJ)
Verse 1
Pre Chorus
Chorus

Lyrics:

(Verse 1)

Who's that crazy crooner, on the street
The man who plays his guitar like a fiend
His face tends to escape me
But no one will ever replace me
But that dope and riff is all I need

(Pre Chorus 1)

Who will argue?
I'll tell you my friend...
Time is all I got, and the same with him

(Chorus)

The groove...It's like nothin I ever knew
He plays his guitar like Justin's do
Will he stop packin, we don't know
What can I say, just smoke it yo

(Verse 2)

The time has come to redeem myself
Said the man to the boy
But I found my cup and my chair
See, I wanna smoke this weed I got,
But those grey motha fuckas almost got us caught

(Pre Chorus 2)

Jammin with  my band
And now I can't move
So may I lay down my funky groove

(Chorus)

The groove...It's like nothin I ever knew
He plays his guitar like Justin's do
Will he stop packin, we don't know
What can I say, just smoke it yo

(Solo)

(Boss DJ (live))

(Verse 1)

Who's that crazy crooner, on the street
The man who plays his guitar like a fiend
His face tends to escape me
But no one will ever replace me
But that dope and riff is all I need

(Pre Chorus 1)

Who will argue?
I'll tell you my friend...
Time is all I got, and the same with him

(Chorus)

The groove...It's like nothin I ever knew
He plays his guitar like Justin's do
Will he stop packin, we don't know
What can I say, just smoke it yo

Hey, this is our first song, so write us back with a comment, if ya like it,
if not, then go screw yourself, j/k.  Email us at Clamzoopa@hotmail.com, if it's not too
much trouble, thanks a lot.  Oh yes, and if you need it, I might be able to send an audio clip for the timing.
comments
We did not receive enough feedback on this tab! Please rate:
print report bad tab
1 2 3 4 5
I want to post or [tab]
guest
You may want to rate the tab now too:
select rating
Please do not post tabs as comments. Select "correction" instead!