Oops, an error
Loading. Please wait.

Lay Me Down chords

version 2
version 2

Whole song

1,434 views 42 this week
2 commentsread comments
1 2 3 4 5
x 7
add to favorites
×
Save as Personal and add changes to this tab that will be seen only by you. Learn more ›
×
You can save this tab as Personal to edit and correct it or add notes. All changes will be seen only by you. Learn more »
launch autoscroll
font size
0
reset
transpose
0
reset
simplify chords
display chords
guitar tuner
edit
Autoscroll
slow
fast
+/-
esc
set tempo
stop
Author
Strumming
There is no strumming pattern for this song yet. and get +5 IQ
-------------------------------------------------------------------------------
                             Lay Me Down - Crosby & Nash
-------------------------------------------------------------------------------
Tabbed by: Rose - jimmythegoon @ hotmail.com

Tunning Eb Ab Db Gb Bb Eb

Intro chords:
Em 0x2x00
Em7 0xx757
A 0xx655
D7 0xx535
Em xx2x03
D6 xx02x2
A x0x220
G6 3xx030
Cadd9 x3x033

Simplified Intro & Chorus tabs:
(*) notates an optional, very soft note that adds a nice droning rhythm.


  Em
|-0------0-----|-0------0-----|
|------0-------|------0-------|
|--------------|--------------| 2x
|---2------(2)-|---2------(2)-|
|--------------|--------------|
|-0------------|-0------------|
           


  Em7           A          D7         Em    D6     A           G6          Cadd9
|-7------7---|-5-----5---|-5-----5---|--3-----2---|-0-----0--|-------0--|--------3---|--------3---|
|------5-----|-----5-----|-----3-----|-----0------|-----2----|-3---3----|-3----3-----|-3----3-----|
|---7-----(7)|---6----(6)|---5----(5)|-----------2|---2------|---0------|----0----(0)|----0----(0)|
|------------|-----------|-----------|--2-----0---|----------|----------|------------|------------| 
|------------|-----------|-----------|------------|-0--------|----------|-3----------|-3----------|
|-0----------|-0---------|-0---------|------------|----------|-3--------|------------|------------|


  Em7         A          D7           Em      D6   A           G6          Cadd9        Em
|-7------7---|-5-----5---|-5-----5---|--3-----2---|-0-----0--|-------0--|--------3---|-0------0---|
|------5-----|-----5-----|-----3-----|-----0------|-----2----|-3---3----|-3----3-----|------0-----|
|---7-----(7)|---6----(6)|---5----(5)|-----------2|---2------|---0------|----0----(0)|------------|
|------------|-----------|-----------|--2-----0---|----------|----------|------------|----2----(2)| 
|------------|-----------|-----------|------------|-0--------|----------|-3----------|------------|
|-0----------|-0---------|-0---------|------------|----------|-3--------|------------|-0----------|


Verse follows a similar picking pattern if you use the chord fingering below.

Verse Chords:
Em 0x2x00
Bm x2x030
Em/G 3x2x00
Asus4 x02230
A7 x02220
Cadd9 * x3x030
Em * 0x2x03
G6 3xx030
Cadd9 x3x033

VERSE 1:
Em                         Bm       
   Driving out through the windmills
       Em/G              Asus4  A7
   and some of them were still.
Em                        Bm
   Sometimes it's hard to catch the wind
       Em/G            Asus4  A7   Em
   and bend it to your will.


Em                  Bm
   Even though it's hard to know
        Em/G          Asus4  A7
   just how the story ends.
Em                         Bm
   The road is long and it takes its time
      Em/G           Asus4  A7 
   on that you can depend.

REFRAIN (same as intro):

Em7       A           D7 Em D6  A         G6      Cadd9
   Lay me down in the river and wash this place away.
Em7          A        D7         Em     D6     A      G6    Cadd9     Em
   Break me down like sand from a stone, maybe I'll be whole again one day.

           Asus4  A
   Lay me down,
Cadd9 *   Em *        G6      A7    Cadd9    Em
   Lay me down, maybe I'll be whole again.

          Asus4  A
   Lay me down,
Cadd9 *   Em *        G6      A7    Cadd9      Em 
   Lay me down, maybe I'll be whole again.

VERSE 2:

Em                   Bm
   Somewhere between heaven and hell
     Em/G                  Asus4  A7
   a soul knows where it's been.
Em/G#                        Bm
   I want to feel my spirits lifted up
      Em/G            Asus4  A7
   to catch my breath again.


REFRAIN:
Em7       A           D7 Em D6  A         G6     Cadd9
   Lay me down in the river and wash this place away.
Em7         A         D7         Em     D6     A      G6    Cadd9     Em
   Break me down like sand from a stone, maybe I'll be whole again one day.

          Asus4  A
   Lay me down,
Cadd9 *   Em *        G6      A7    Cadd9    Em
   Lay me down, maybe I'll be whole again.

           Asus4  A
   Lay me down,
Cadd9 *   Em *        G6      A7    Cadd9     Em 
   Lay me down, maybe I'll be whole again.

          Asus4  A
   Lay me down,
Cadd9 *   Em *        G6      A7    Cadd9      Em    Em   Em   Em   Em
   Lay me down, maybe I'll be whole again one day.

            
            
Suggest correction
Creating personal tab
Creating personal tab
You can edit any tab online and save it as your Personal.

You can edit, replace or remove any tab part or add personal notes – all changes will be seen only by you.

Personal tabs can be accessed anytime from any device, even offline.
Learn more »
comments
print report bad tab
2 comments total.
0 reply
acmacm 43 Sep 15, 2017 08:22 PM

very detaled, thanks!

0 reply
jerrylee57 10 Oct 05, 2017 11:34 AM

Great song and thanks for the tab. I love it

guest
You may want to rate the tab now too:
select rating
Wanna post a correction for this tab? Suggest correction