Oops, an error
Loading. Please wait.

Lady Of The Island chords

version 3
version 3

Whole song

430 views 1 this week
no commentswrite comment
1 2 3 4 5
3 more votes to show rating
add to favorites
×
Save as Personal and add changes to this tab that will be seen only by you. Learn more ›
×
You can save this tab as Personal to edit and correct it or add notes. All changes will be seen only by you. Learn more »
launch autoscroll
font size
0
reset
transpose
0
reset
simplify chords
display chords
guitar tuner
edit
Autoscroll
slow
fast
+/-
esc
set tempo
stop
Author
Strumming
There is no strumming pattern for this song yet. and get +5 IQ
-----------------------------------------------------------------
           Lady of the island - Crosby, Stills & Nash
-----------------------------------------------------------------

Tabbed By : Aeonoptic
e-mail: aeonoptic@gmail.com

Tuning: Eb Eb Bb F G Bb

 [Chords]
  
  Ebadd9 C#6/9  B6   C7sus4 Gm7 Fm
Bb|-------------------------0---0--|
G |-------------------------3---1--|
F |12-----12----10---10-----0---0--|
Bb|12-----12----10---10-----0---0--|
Eb|12-----12----8----7------4---2--|
Eb|12-----10----8----7------4---2--|


[Verse 1]

Ebadd9                         C#6/9
Holdin' you close, undisturbed before a fire
B6                                C7sus4
The pressure in my chest when you breathe in my ear
Gm7                                  Fm                Gm7
We both knew this would happen when you first appeared
               Fm
My lady of the island


[Verse 2]

Ebadd9                            C#6/9
The brownness of your body in the fire glow
B6                              C7sus4
Except the places where the sun refused to go
Gm7                           Fm              Gm7
Our bodies were a perfect fit in afterglow we lay
               Fm
My lady of the island

[Bridge 1]

G#9sus/F#      Fm(add11)          E(b5)             Gm
Letting myself wander through the world inside your eyes
 

   G#9sus/F# Fm(add11) E(b5)   Gm
Bb|--0-0-0--|--0-0-0--|--0-1-0|12----12+|
G |1--------|1--------|1------|12h15-12+|
F |---------|---------|-------|---------|
Bb|---------|---------|-------|---------|
Eb|3--------|2--------|1------|---------|
Eb|---------|---------|-------|---------|


G#9sus/F#            Fm(add11)        E(b5)
You know I'd like to stay here until' every tear runs


   G#9sus/F# Fm(add11) E(b5)   
Bb|--0-0-0--|--0-0-0--|--0-1-0|
G |1--------|1--------|1------|
F |---------|---------|-------|
Bb|---------|---------|-------|
Eb|3--------|2--------|1------|
Eb|---------|---------|-------|


[Scat verse] 

  Ebadd9 C#6  C7sus4 B6  Gm7 Fm
Bb|----------------------0---0--|
G |----------------------3---1--|
F |12-----12--12-----10--0---0--|
Bb|12-----12--12-----10--0---0--|
Eb|12-----10--9------8---4---2--|
Eb|12-----10--9------8---4---2--|


Note: the following is approximate, it's similar timings to the verse,
except C#6 is shorter and C7sus4 slightly longer, and Gm7/Fm repeat a
couple of times
 

Ebadd9
Dry
         C#6       
Da da da da da da
C7sus4   B6
Da da da da da da
Gm7   Fm Gm7   Fm Gm7
Da da da da da da
               Fm
My lady of the island


[Verse 3]
  Ebadd9 C#6    B6   C7sus4 Gm7 Fm
Bb|-------------------------0---0--|
G |-------------------------3---1--|
F |12-----12----10---10-----0---0--|
Bb|12-----12----10---10-----0---0--|
Eb|12-----10----8----7------4---2--|
Eb|12-----10----8----7------4---2--|


Ebadd9                           C#6
Wrapped around each other in the peepin' sun
B6                                C7sus4
Beams of sunshine light the stage the red light's on
Gm7                         Fm               Gm7
I never want to finish what I've just begun with you
               Fm
My lady of the island

[Outro]


Gm7      Fm
Da da da da da da
Gm7      Fm
Da da da da da da
Gm7      Fm
Da da da da da da

   EbAdd9
Bb|---------------12+----|
G |-----------12+-----12+|
F |-------12+------------|
Bb|---12+----------------|
Eb|----------------------|
Eb|0---------------------|

   
| /  slide up
| \  slide down
| h  hammer-on
| p  pull-off
| ~  vibrato
| +  harmonic
| x  Mute note

            
            
Suggest correction
Creating personal tab
Creating personal tab
You can edit any tab online and save it as your Personal.

You can edit, replace or remove any tab part or add personal notes – all changes will be seen only by you.

Personal tabs can be accessed anytime from any device, even offline.
Learn more »
Give kudos to tab author, rate the tab!
1 2 3 4 5
comments
print report bad tab
guest
You may want to rate the tab now too:
select rating
Wanna post a correction for this tab? Suggest correction