Oops, an error
Loading. Please wait.

Ohio Tab

version 2
version 2

Whole song

Interactive

44,757 views 12 this week
8 commentsread comments
1 2 3 4 5
x 13
add to favorites
×
Save as Personal and add changes to this tab that will be seen only by you. Learn more ›
×
You can save this tab as Personal to edit and correct it or add notes. All changes will be seen only by you. Learn more »
save as personal
new!
launch autoscroll
font size
0
reset
how to read this tab
guitar tuner
Autoscroll
slow
fast
+/-
esc
set tempo
stop
Author
	Ohio
	Crosby stills nash and young (too many names)
	Tabbed by jjmig
	Sfichtner@trevornet.org

	E|---------------------------|-----------------------------|
	B|-----3------3--------------|-------3------3--------------|
	G|-----0h2------0----0----0--|-------0h2-------0-----0-----|
	D|--0--------------3---------|--0-----------------3--------|
	A|-----------------------3---|--------------------------3--|
	D|---------------------------|-----------------------------|

	VERSE:
    D|-----------------------------------|---------------------------|
    B|-------3------3----3------------------|-------3------3----3----|
    G|-------0h2----2----0------0--------0--|-------0h2----2----0--0-|
    D|--0------------------3----------------|--0-------------------3-|
    A|------------------------------3-------|----------------------3-|
    D|--------------------------------------|------------------------|

	    Tin soldiers and   Nixon coming, We're finally   on our own
	    This Summer I hear the drumming, Four  dead in Ohio

	Heresa the chorusa
Gotta get down to it, soldiers are cutting us down
Should have been done long ago
What if you knew her and, found her dead on the ground
How can you run when you know?

	Then start shouting and jumpin around singing
	La la la la, la la, la la
	La la la la, la la, la
	La la la la, la la, la la
	La la la la, la la, la

That's all right, young was a really ugly and bad guy..........
Bud this song rocks!!!! BO YA
Suggest correction
comments
print report bad tab
8 comments total. Showing first comments.
0 reply
Jarrett Moore 10 Aug 21, 2005 08:00 PM

why do lhave it tuned in drop d? you don't even use E in this song. Other than that pretty good

+1 reply
Jarrett Moore 10 Sep 04, 2005 08:00 PM

and p.s whats wrong neil young?

+1 reply
Duststone 30 Aug 23, 2006 09:11 AM

Agreed Neil Young is awesome

guest
You may want to rate the tab now too:
select rating
Wanna post a correction for this tab? Suggest correction