Oops, an error
Loading. Please wait.

Teach Your Children Bass Tab

version 1
version 1

Whole song

Interactive

5,914 views 12 this week
no commentswrite comment
1 2 3 4 5
excellent!
x 4
add to favorites
launch autoscroll
font size
0
reset
guitar tuner
Tab Pro tools
  • play this tab
  • loop segment
  • change instrument
  • show fretboard
  • metronome
×
Best way to learn
"Teach Your Children"
Autoscroll
slow
fast
+/-
esc
set tempo
stop
Contributor
Difficulty
novice
[INTRO]
  D         G         D         A
G:----|----|0---|----|----|---0|2---|----|
D:0---|0-24|--0-|----|0---|04--|--2-|----|
A:--0-|----|----|-2-4|--0-|----|----|0---|
E:----|----|----|3---|----|----|----|----|

[VERSE]
  D                      G                    D                     A
  You     Who are on the road     Must have a code     That you can live by
      D                  G                    D                     A
  And so      Become yourself     Because the past        Is just a good-bye

  D         G         D         A         D         G         D         A
G:----|----|0---|-0--|----|---0|2---|-2-0|----|----|0---|0---|----|----|----|-2-0|
D:0---|0-24|--0-|----|0---|0-4-|--2-|----|0---|0-24|--0-|----|0---|0---|--2-|----|
A:--0-|----|----|----|--0-|----|----|0---|--0-|----|----|--24|--0-|--42|0---|0---|
E:----|----|----|3---|----|----|----|----|----|----|----|----|----|----|----|----|

[CHORUS]
  D                         G                       D                      A
  Teach       Your children well     Their father's Hell        Did slowly go by
      D                     G                       D                      A
  And feed     Them on your dreams     The one they picks   The one you'll know by

  D         G         D         A         D         G         D         A
G:----|----|0---|----|----|----|----|-2-0|----|----|0---|--0-|----|----|2---|-2-2|
D:0---|02-4|--0-|----|0---|0---|--2-|----|0---|0-24|--0-|----|0---|0---|--2-|----|
A:--0-|----|----|-2-4|--0-|--42|0---|0---|--0-|----|----|----|--0-|--0-|----|0-0-|
E:----|----|----|3---|----|----|----|----|----|----|----|3---|----|----|----|----|

  D                         G                              D
    Don't you ever ask them why     If they told you would cry
                           Bm     G   A           
  So just look at them and si-i-i-i-i-igh  and know they...

  D         G         D         Bm        G    A    
G:----|----|0---|----|--2-|----|----|----|0---|2---|
D:0---|04-4|--0-|----|0---|0---|----|----|--0-|----|
A:--0-|----|----|--24|----|--4-|2-22|2-2-|----|----|
E:----|----|----|3---|----|----|----|----|----|----|

[BRIDGE]
  D
  Love you

  D         G         D         A
G:----|----|----|0---|--2-|--2-|2---|----|
D:0---|0---|--0-|----|0---|0---|--2-|----|
A:--0-|----|----|--24|----|----|----|0---|
E:----|--02|3---|----|----|----|----|----|

[VERSE]
      D                       G
  And you           Of tender years
     (Can you hear and        Do you care and)
                 D                               A
  Can't know the fears          That your elders grew by
                (Can you see we                  Must be free to)
                D                                   G
  And so please help                 Them with your youth
               (Teach your children                 You believe and)
                D                         A
  They seek the truth         Before they can die
               (Make a world that         We can live in)

  D         G         D         A         D         G         D         A
G:----|----|0---|0---|----|---0|2---|----|----|----|0---|0-0-|----|2---|----|----|
D:0---|0---|--0-|----|0---|0-4-|--2-|----|0---|0-24|--0-|----|0--0|-0-0|--2-|--2-|
A:--0-|--0-|----|--24|--0-|----|----|0---|--0-|----|----|----|--0-|--0-|0---|0---|
E:----|----|----|----|----|----|----|----|----|----|----|----|----|----|----|----|

[CHORUS]
  D                        G                       D                      A
  Teach       Your parents well   Their children's Hell       Will slowly go by
      D                    G                       D                      A
  And feed    Them on your dreams     The one they picks   The one you'll know by

  D         G         D         A         D         G         D         A
G:----|----|0---|----|----|----|-2--|----|----|----|0---|----|--2-|--2-|----|----|
D:0---|0-24|---0|----|0---|0---|--2-|---2|0---|0-24|--0-|----|0---|0---|--2-|----|
A:--0-|----|----|-2-4|--0-|--0-|0---|024-|--0-|----|----|--24|----|---2|0---|0-24|
E:----|----|----|3---|----|----|----|----|----|----|----|3---|----|----|----|----|

  D                         G                              D
    Don't you ever ask them why     If they told you would cry
                           Bm   G   A 
  So just look at them and si-i-i-i-igh   and know they

  D         G         D         Bm        G    A    
G:----|----|0---|----|--2-|----|----|----|0--0|2---|
D:0---|0-24|--0-|----|0---|0---|----|--44|----|----|
A:--0-|----|----|--2-|----|--4-|2-22|2---|----|----|
E:----|----|----|3---|----|----|----|----|-3--|----|

[OUTRO]
  D
  Love you

  D                 G                 D        A                 D
G:--------|--------|0-------|--------|--------|2---20--|--------|--------|
D:0-------|------4-|--------|--------|0---0---|--------|0---242-|0---0---|
A:--------|--------|--------|------4-|--------|--------|--------|--0-----|
E:--------|--------|--------|3-------|--------|--------|--------|--------|


Tabbed by Michael Oxner
moxner@nbnet.nb.ca
Updated October 8th, 2011
comments
print report bad tab
I want to post or [tab]
guest
You may want to rate the tab now too:
select rating
Please do not post tabs as comments. Select "correction" instead!