Oops, an error
Loading. Please wait.

Ohio tab

version 3
version 3

Whole song

Interactive

40,686 views 39 this week
6 commentsread comments
1 2 3 4 5
x 23
add to favorites
×
Save as Personal and add changes to this tab that will be seen only by you. Learn more ›
×
You can save this tab as Personal to edit and correct it or add notes. All changes will be seen only by you. Learn more »
launch autoscroll
font size
0
reset
how to read this tab
guitar tuner
edit
Autoscroll
slow
fast
+/-
esc
set tempo
stop
Author
Difficulty
Unregistered
OHIO
Crosby, Stills, Nash, And Young


Intro (Verse)
e|---------------------------|-----------------------------|
B|-----3------3--------------|-------3------3--------------|
G|-----0h2--2---0----0----0--|-------0h2--2----0-----0-----|   (2x)
D|--0--------------3---------|--0-----------------3--------|
A|-----------------------3---|--------------------------3--|
E|---------------------------|-----------------------------|

Chorus
e|------3-3-3-3-3-3-x-x--0-0-0-0-0-0--|
B|------3-3-3-3-3-3-x-x--1-1-1-1-1-1--|
G|------3-3-3-3-3-3-x-x--0-0-0-0-0-0--|   (4x)
D|------3-3-3-3-3-3-x-x--2-2-2-2-2-2--|
A|------5-5-5-5-5-5-x-x--3-3-3-3-3-3--|
E|--3-3-3-3-3-3-3-3-x-x---------------|

Solo 1
e|--------------------------------------------------------------------------|
B|-----------------------------------------------13-13-13-------------------|
G|--0-0h2-2/5-5/7-7/9-9/12-12-14-12-9---------------------12h14-12----------|
D|------------------------------------9-9h12-12--------------------15\12-12-|
A|--------------------------------------------------------------------------|
E|--------------------------------------------------------------------------|

---------------------|
---------------------|
----------9h12-9-----|
-----9h12--------12--|
-9h12----------------|
---------------------|

Intro (Verse)   (2x)

Solo 2
e|--------------------------------------------------10-10--8\7-8-7-5-5h7-7-|
B|--8h7---8h7---8h7-----7-7h8-8-8/10-10-10-10-10-10------------------------|
G|------7-----7-----7-7----------------------------------------------------|
D|-------------------------------------------------------------------------|
E|-------------------------------------------------------------------------|
A|-------------------------------------------------------------------------|

-5-5-3-3-3h5-5--10-10-10-8-7-7-5-5-5h7-5-5-3-3-3-1-1h3-1----------|
---------------------------------------------------------3-1-1h3--|
------------------------------------------------------------------|
------------------------------------------------------------------|
------------------------------------------------------------------|
------------------------------------------------------------------|

Verse   (2x)

Chorus   (4x)

Verse   (2x)

end with:
e|---------------------------|----------------------0---|
B|-----3----3--3-------------|-----3----3--3--------1---|
G|-----0h2--2--0-----0----0--|-----0h2--2--0-----0--0---|
D|--0-------------3----------|--0-------------3-----2---|
A|---------------------3-----|----------------------3---|
E|---------------------------|----------------------0---|

For any questions, comments, or etc. contact:
Geoffrey Pippin
jorff2@hotmail.com

            
            
Suggest correction
Creating personal tab
Creating personal tab
You can edit any tab online and save it as your Personal.

You can edit, replace or remove any tab part or add personal notes – all changes will be seen only by you.

Personal tabs can be accessed anytime from any device, even offline.
Learn more »
comments
print report bad tab
6 comments total. Showing first comments.
0 reply
fujitsu921 21 Nov 16, 2006 08:59 AM

do drop D and play the first note on that and its basically perfect

0 reply
M&M5192 10 Jan 05, 2007 05:41 PM

good enough for me..nice job

0 reply
Kifani 10 Jan 06, 2007 01:26 PM

MOst of the time when you tab it at the 9th fret it is actually played on the 10th fret of that string.

guest
Wanna post a correction for this tab? Suggest correction