Oops, an error
Loading. Please wait.

Our House bass

version 2
version 2

Whole song

  • Just a straightforward bastab. I use a 5-string, b... Show more

Interactive

115 views 1 this week
no commentswrite comment
1 2 3 4 5
2 more votes to show rating
add to favorites
×
Save as Personal and add changes to this tab that will be seen only by you. Learn more ›
×
You can save this tab as Personal to edit and correct it or add notes. All changes will be seen only by you. Learn more »
launch autoscroll
font size
0
reset
guitar tuner
edit
Autoscroll
slow
fast
+/-
esc
set tempo
stop
Author
About this tab version
Just a straightforward bastab. I use a 5-string, but it's just as playable on a 4-string. Was this info helpful? Yes No
OUR HOUSE - Crosby, Stills, Nash and Young


I'll light the fire
You place the flowers in the vase
That you bought
Today

Staring at the fire
For hours and hours
While I listen 
To you 
Play your love songs
All night long 

   1 2 3 4 
  G|-------/-----/------/-----/-----/-----/
  D|-------/-----/------/-----/-----/-----/
  A|-------/-----/------/-----/5----/3----/
  E|5------/4----/2-----/-----/-----/-----/
  B|-------/-----/------/5----/-----/-----/
For me            Only for me 

  1 2 3 4 
G|----2----/-------/-------------/------------/
D|---------/-------/-------------/------------/
A|---------/-------/-------------/------------/
E|5--------/4------/2------------/------------/
B|---------/-------/-------------/5-----------/
  Come to me now  And rest your head for just five minutes

G|-----/-----/-----/------/
D|-----/-----/-----/4-----/
A|5----/4----/2----/------/
E|-----/-----/-----/------/
B|-----/-----/-----/---5--/
  Everything is done

G|---------/-------/-------------/------------/
D|---------/-------/-------------/------------/
A|---------/-------/-------------/------------/
E|5--------/4------/2------------/------------/
B|---------/-------/-------------/5-----------/
  Such a cozy room The windows are il -    luminated

                1  2    3     4
G|----/--------/------------------/------------------/
D|----/--------/------------------/------------------/
A|5---/4-------/2--4----------4---/2--4----------4---/
E|----/--------/------------------/------------------/
B|----/--------/--------5---------/--------5---------/
  By the evening   Sunshine through them  Fie – ry  gems   For   



 G|---/----/------/-----/-----/-----/
 D|---/----/------/-----/-----/-----/
 A|---/----/------/-----/5----/3----/
 E|5--/4---/2-----/-----/-----/-----/
 B|---/----/------/5----/-----/-----/
   you      Only for you


Chorus:
  1 2 3 4 
G|----2----/--------/-------------/------------/
D|---------/--------/-------------/------------/
A|---------/--------/-------------/------------/
E|5--------/4-------/2------------/------------/
B|---------/--------/-------------/5-----------/
  Our       house, is a very, very, very fine house

   G|-----------/--------/----------/------------/
   D|-----------/--------/----------/------------/
   A|5----------/4-------/5---------/4-----------/
   E|-----------/--------/----------/------------/
   B|-----------/--------/----------/------------/
  With two cats in the yard   Life used to be so hard

                           1 2 3 4 
    G|---------/----------/--------/--------/----------/
    D|---------/----------/--------/--------/----------/
    A|5--------/4---------/5---5---/5-------/2-----5---/
    E|---------/----------/--------/----5---/----------/
    B|---------/----------/--------/--------/----------/
  Now everything is easy 'cause of You               And I


Break:                                1  3
G|----/----/----/----/----/----/----/------/
D|----/----/----/----/----/----/----/4-----/
A|----/----/----/----/5---/4---/2---/------/
E|5---/4---/2---/0---/----/----/----/------/
B|----/----/----/----/----/----/----/---5--/
  La la la....

G|----/----/----/----/----/----/----/------/
D|----/----/----/----/----/----/----/4-----/
A|----/----/----/----/5---/4---/2---/------/
E|5---/4---/2---/0---/----/----/----/------/
B|----/----/----/----/----/----/----/---5--/
  La la la....


Chorus:
  1 2 3 4 
G|----2----/--------/-------------/------------/
D|---------/--------/-------------/------------/
A|---------/--------/-------------/------------/
E|5--------/4-------/2------------/------------/
B|---------/--------/-------------/5-----------/
  Our       house, is a very, very, very fine house

   G|-----------/--------/----------/------------/
   D|-----------/--------/----------/------------/
   A|5----------/4-------/5---------/4-----------/
   E|-----------/--------/----------/------------/
   B|-----------/--------/----------/------------/
  With two cats in the yard   Life used to be so hard

                           1 2 3 4 
    G|---------/----------/--------/--------/----------/
    D|---------/----------/--------/--------/----------/
    A|5--------/4---------/5---5---/5-------/----------/
    E|---------/----------/--------/--------/----------/
    B|---------/----------/--------/--------/----------/
  Now everything is easy 'cause of You               And I


I'll light the fire
While you place the flowers in the vase
That you bought 
Today

Suggest correction
Creating personal tab
Creating personal tab
You can edit any tab online and save it as your Personal.

You can edit, replace or remove any tab part or add personal notes – all changes will be seen only by you.

Personal tabs can be accessed anytime from any device, even offline.
Learn more »
Give kudos to tab author, rate the tab!
1 2 3 4 5
comments
print report bad tab
guest
You may want to rate the tab now too:
select rating
Wanna post a correction for this tab? Suggest correction