Oops, an error
Loading. Please wait.
1,613 views 1 this week
1 commentread comment
1 2 3 4 5
2 more votes to show rating
add to favorites
×
Save as Personal and add changes to this tab that will be seen only by you. Learn more ›
×
You can save this tab as Personal to edit and correct it or add notes. All changes will be seen only by you. Learn more »
launch autoscroll
font size
0
reset
how to read this tab
guitar tuner
edit
Autoscroll
slow
fast
+/-
esc
set tempo
stop
Author
Difficulty
-------------------------------------------------------------------------------
                 Sanibel - Crosby, Stills, Nash and Young
-------------------------------------------------------------------------------
Tabbed by: Chris Gennone
Email: Serpico104@aol.com

Tuning: Standard

This is my first tab, not exact but pretty close, I was just playing aimlessly with the song.

Intro:
e|--------------------------------------------------------------------------|
B|--------------------------------------------------------------------------|
G|-----------4-------5-------------4-------5------------4-----5-----4----2--|
D|------5----0-------0------5------0-------0------5-----0-----0-----0----0--|
A|------0-------------------0---------------------0-------------------------|
E|--------------------------------------------------------------------------|

Verses:
e|----------------------------------------------------3---5---3---h5---3-----|
B|-------------3--------------3----5----3----------------------------------5-|
G|---4----5----0----4----5----0----0----0----5----4--------------------------|
D|---0----0---------0----0-------------------0----0--------------------------|
A|---------------------------------------------------------------------------|
E|---------------------------------------------------------------------------|

e|--------------------------------------------------------------------------|
B|---3----5----3------------------------------------------------------------|
G|---0----0----0----5----4----2---------------------------------------------|
D|------------------0----0----0---------------------------------------------|
A|--------------------------------------------------------------------------|
E|--------------------------------------------------------------------------|

Chorus:
     Gmaj7  G    G    C    G
e|----2-2-2-3---------3-----------------------------------------------------|
B|----0-0-0-0----3----1----3------------------------------------------------|
G|----0-0-0-0----0----0----0------------------------------------------------|
D|----0---0------0----2----0------------------------------------------------|
A|---------------2----3----2------------------------------------------------|
E|----3------3---3---------3------------------------------------------------|

That's pretty much it. It's a fairly simple song, just play along with the song with 
I gave you here and you should be able to figure it out easily.

            
            
Suggest correction
Creating personal tab
Creating personal tab
You can edit any tab online and save it as your Personal.

You can edit, replace or remove any tab part or add personal notes – all changes will be seen only by you.

Personal tabs can be accessed anytime from any device, even offline.
Learn more »
Give kudos to tab author, rate the tab!
1 2 3 4 5
comments
print report bad tab
1 comment total.
0 reply
mirza.harris 278 Jul 30, 2015 02:12 AM

This is good but sounds a little off, I haven't played the intro, but the chorus is good, and the start of the verse is great.

guest
You may want to rate the tab now too:
select rating
Wanna post a correction for this tab? Suggest correction