Oops, an error
Loading. Please wait.

17 Chords

49,100 views 75 this week
1 commentread comment
1 2 3 4 5
x 28
add to favorites
launch autoscroll
font size
0
reset
transpose
0
reset
simplify chords
display chords
guitar tuner
Autoscroll
slow
fast
+/-
esc
set tempo
stop
Help us to improve Ultimate-Guitar.com Take our survey!
×
Author
Difficulty
Tuning
intermediate
E A D G B E
The asterics are where the fill ins go they are at the bottom


[Intro]

G*C**G*C*

[Verse 1]
G                               ***
Sirens wail and a flashing light
G                                   C
Nothing better to do on a Tuesday night
             G*
But give me hell
G                                    ***
Where ya headed, what are you out for
G                                    C
Don't see much of you 'round here anymore
                      G*
I guess it's just as well
D                  C
Once upon a time you had it all
D                  C
You let everybody down
C                    D               G*
You're always seventeen in your hometown.

[Chorus]
D                   C                      G
Running from your folks, running from the law
D              C                      G                     D
Running from love, running from your fears, running from it all
C             D
You keep on running, boy
        G           G/F#     Em
You'll run yourself in the ground
C                D                G     *  **
You're always seventeen in your hometown

[Verse 2]
G                                   ***
Her porch swing still looks the same
G                                    C
She probably won't even remember my name
                             G***
Just like she didn't back then
G                                ***
Is she married, is she doing fine
G                                                  C
Does she known about all the nights I laid awake cryin'
                  G*
Just to know her hand
D                  C
The door opens and I run away
D                       C
Just like the same old clown
C              D                     G*
You're always seventeen in your hometown

[Chorus]
D                   C                      G
Running from your folks, running from the law
D              C                      G                     D
Running from love, running from your fears, running from it all
C             D
You keep on running, boy
        G           G/F#     Em
You'll run yourself in the ground
C                D                G     *  **
You're always seventeen in your hometown


[Solo]
* ** * ** 

[Verse 3]
G
Nobody is gonna miss me
G                                   C
No tears will fall, no one's gonna weep
                  G
When I hit that road
G                                                            G
My boots are broken, my brain is sore
                                                   C
From keeping up with their little world
                  G
I've got a heavy load
D                          C
Gonna leave 'em all just like before
D             C
I'm big city bound
C              D                     G*
You're always seventeen in your hometown

[Chorus]

D                   C                      G
Running from your folks, running from the law
D              C                      G                     D
Running from love, running from your fears, running from it all
C             D
You keep on running, boy
        G           G/F#     Em
You'll run yourself in the ground
C                D                G     *  **
You're always seventeen in your hometown

*
e|--------------------------|
B|--------------------------|
G|---4-4-2-0---0-2-4-2-0----|
D|-----------2-----------2--|
A|--------------------------|
E|--------------------------|

 **
e|--------------------------|
B|--------------------------|
G|---4-4-2-0---0-2-4-2-0----|
D|-----------2--------------|
A|--------------------------|
E|--------------------------|

  ***
e|--------3-----|
B|--------3-----|
G|------0-0-----|
D|-0h2----------|
A|--------------|
E|--------------|

[Solo]
e|-------------------------||
B|------------0------------||
G|-5--4-2----0-0------0-0--||
D|--------0h2---4-2-0------||
A|-------------------------||
E|-------------------------||

e|---------------------------------------------||
B|------------0--------------------------------||
G|-7--5-4----0-0----------12---11-9-7-5-4-2-0--||
D|--------0h2---4-2-0-0-0-----0--0-0-0-0-0-0---||
A|---------------------------------------------||
E|---------------------------------------------||

 * Bend 1/2     H Hold      hold bend .....
e|----------------------------------------------------||
B|--------------------0------------------3------------||
G|------0-*2-0-------0-0--------0-H2--*---(1/2)2-0----||
D|---0h2-2--------0-2---0----0h2-2--------------------||
A|----------------------------------------------------||
E|----------------------------------------------------||



************************************

| h  Hammer-on
| /  Slide up
| *  Natural harmonic

************************************
Suggest correction
comments
print report bad tab
1 comment total.
+1 reply
Restufeu_34 62 Apr 05, 2014 08:18 PM

C D G
Your always seventeen in your home town

guest
You may want to rate the tab now too:
select rating
Wanna post a correction for this tab? Suggest correction