Oops, an error
Loading. Please wait.
12,673 views 18 this week
2 commentsread comments
1 2 3 4 5
x 9
add to favorites
launch autoscroll
font size
0
reset
how to read this tab
guitar tuner
×
Best way to learn
"Constantly"
Autoscroll
slow
fast
+/-
esc
set tempo
stop
Author
Difficulty
This is my first tab but I'm pretty sure its right. Its just the intro but you
also play the first part of it between lines during the verse. And PLEASE gimmie some 
of feedback so I have an idea. Thanks.

e|---------------------------------------|
b|--------3-2-0------------------3---2---|
g|--4-4p2-------2-2--4-4p2-2-------------|
d|---------------------------2/4---4-----|
a|---------------------------------------|
E|---------------------------------------|
Suggest correction
comments
print report bad tab
2 comments total.
0 reply
swindjt 10 Jan 25, 2010 09:46 AM

sounds pretty good to me

0 reply
guitarp_11 142 Aug 21, 2010 01:45 PM

That's the simple version, but to give it more body strike the A string open in between some of the notes such as:

e|---------------------------------------|
b|--------3-2-0------------------3---2---|
g|--4-4p2-------2-2--4-4p2-2-------------|
d|---------------------------2/4---4-----|
a|-------0-------0-0------------------0--|
E|---------------------------------------|

guest
You may want to rate the tab now too:
select rating
Wanna post a correction for this tab? Suggest correction