Oops, an error
Loading. Please wait.

Dead Man Tab

4,515 views 6 this week
no commentswrite comment
1 2 3 4 5
please rate
add to favorites
launch autoscroll
font size
0
reset
how to read this tab
guitar tuner
Tab Pro tools
  • play this tab
  • loop segment
  • change instrument
  • show fretboard
  • metronome
×
Best way to learn
"Dead Man"
Autoscroll
slow
fast
+/-
esc
set tempo
stop
Contributor
Title: Dead Man
Artist: Cross Canadian Ragweed
Album: Mission California(2007)

Ok here's my best attempt at this song. Its not perfect because Cody plays it
a little different every time, but this is pretty close.

For this song, when you strum, you can either play all the strings as tabbed,
or you can mute the high e string; you can even mute both the high e and b
strings if you like, it sounds fine. Keep your pinky and ring fingers on the
3rd fret of the high e and b strings respectively, only moving your index
and middle to play the entire song (except during bridge).


Chords:

G5/F(i think):        G           Csus2       D9(maybe?):
E|-3-|    E|-3-|      E|-3-|      E|-3-|      E|-3-|
B|-3-|    B|-3-|      B|-3-|      B|-3-|      B|-3-|
G|-0-| or G|-2-|      G|-0-|      G|-0-|      G|-0-|
D|-3-|    D|-3-|      D|-0-|      D|-2-|      D|-1-|
A|-x-|    A|-x-|      A|-x-|      A|-3-|      A|-x-|
E|-x-|    E|-x-|      E|-x-|      E|-x-|      E|-x-|

Example strum pattern (apply to all chords):
E|------3--------3---3---3---|
B|------3--------3---3---3---|
G|------0--------0---0---0---|
D|-3-------------------------|
A|---------------------------|
E|---------------------------|





NOTE: in the intro and fill pairs of a chord are played by a quick down/up 
      strum, triplets of a chord are played up/down/up strum. (each bar does
      represent a measure, the spacing just got off)

Intro:
E|------3------3---3---3---|------3----------------|------3---3-----------3-|
B|------3------3---3---3---|------3----------------|------3---3-----------3-|
G|------0------0---0---0---|------0----------------|------0---0-----------0-|
D|-3-----------------------|-2-----------2p0-------|-0----------------------|
A|-------------------------|-------------------3---|---------------0h3------|
E|-------------------------|-----------------------|------------------------|


E|------3----------------|--------------3---3---3--|------3-----------3---3-|
B|------3----------------|--------------3---3---3--|------3-----------3---3-|
G|------0----------------|--------------0---0---0--|------0-----------0---0-|
D|-0---------------------|------0h2----------------|------------------------|
A|------------0h2----2---|-3-----------------------|-2----------2p0---------|
E|-----------------------|-------------------------|------------------------|


E|-----3---3----------3---3--|-----3----------------|-------------3--3--3---|
B|-----3---3----------3---3--|-----3----------------|-------------3--3--3---|
G|-----0---0----------0---0--|-----0----------------|------0h2----2--2--2---|
D|-0-------------------------|-0----------0h2---2---|-3---------------------|
A|-------------0h3-----------|----------------------|-----------------------|
E|---------------------------|----------------------|-----------------------|


E|-----3-----------|-----3--3--------3-|----3-----------|-----------3--3--3-|
B|-----3-----------|-----3--3--------3-|----3-----------|-----------3--3--3-|
G|-----0-----------|-----0--0--------0-|----0-----------|-----------0--0--0-|
D|-2-------2p0-----|-0-----------------|-0--------------|-----0h2-----------|
A|--------------3--|-----------0h3-----|--------0h2---2-|-3-----------------|
E|-----------------|-------------------|----------------|-------------------|


E|------3----------3---3--|-----3---3-----------3--3--|-----3------3--3--3--|
B|------3----------3---3--|-----3---3-----------3--3--|-----3------3--3--3--|
G|------0----------0---0--|-----0---0-----------0--0--|-----0------0--0--0--|
D|------------------------|-0-------------------------|-0-------------------|
A|-2---------2p0----------|--------------0h3----------|---------------------|
E|------------------------|---------------------------|---------------------|



Verses(Fill means last 4 measures of intro):

G5/F  Csus2  G  G  Fill   <---repeat entire sequence x2


Chorus:

G  Csus2  G5/F  D9  Fill   <---repeat entire sequence x2

Csus2  G5/F  G  G

G5/F  Csus2  G  G   <---repeat this until verse


Bridge(any part where Cody sings "ooh ooh ooh"):

F  C  D  D    <---regular D

Please comment/rate and message me with any suggestions or for any help.
If I get enough requests I guess I could do a video on the intro.

     - JW  -
comments
We did not receive enough feedback on this tab! Please rate:
print report bad tab
1 2 3 4 5
I want to post or [tab]
guest
You may want to rate the tab now too:
select rating
Please do not post tabs as comments. Select "correction" instead!