Oops, an error
Loading. Please wait.

Long Way Home Chords

4,507 views 6 this week
no commentswrite comment
1 2 3 4 5
1 last vote to show rating
add to favorites
×
Save as Personal and add changes to this tab that will be seen only by you. Learn more ›
×
You can save this tab as Personal to edit and correct it or add notes. All changes will be seen only by you. Learn more »
save as personal
new!
launch autoscroll
font size
0
reset
transpose
0
reset
display chords
guitar tuner
Autoscroll
slow
fast
+/-
esc
set tempo
stop
Author
Strumming
There is no strumming pattern for this song yet. and get +5 IQ
Intro: D-A-G  (3X) and then : Bm A D

 
D                A - G          D-A-G
To scared to go to proud to run   
D                   A - G              D-A-G
Here's your orders boy here's your gun
D                      A - G                          
We're sending you off to vietnam 
       Bm                A  - D
try to stay cool try to stay calm

(Play Intro Again)
D                  A    -    G             D-A-G
Never seen nothing but that mid-texas dirt
D           A - G              D-A-G 
Never been on a flyin' machine
D                A - G                                   
Your job now is to take this gun 
          Bm         A       D 
and kill everything that you see

Chorus:
       C   G     D
Its a long way home
        F          C              D                        
Its a long, long, long, long way home

(Play intro)

D                   A - G                 D-A-G
Orange in the air and fire on the ground
          D             A - G              D-A-G
Man them back-up-boys aint nowhere around
            D                A - G
And theres smoke in the sky and screamin to the sea 
    Bm            A  D
oh God have mercy on me

(Chorus)
(Play intro for solo)

D           A - G             D-A-G
Got that medal on your chest
D           A - G   D-A-G
Now ya got it made
            D          A  -  G
But you're going back to the land of protest 
       Bm        A - D
and an empty heros parade

(no chords here, just bass and drums)
You're wakin up in the dead of night

(no chords here, just bass and drums)
Screamin out your lungs

(no chords here, just bass and drums)                     
You got jungle fires and trip-bomb wires 
                         D
and blazin red turret guns

(chorus)
(play intro for outro) 


Solo
|------------------------|-------------------10s-|
|------------------------|-----------------------|
|---------7-7-9brp7--7~~-|--------7---9brp7------|
|-----7-9----------9-----|------7---9------9-----|
|-7s9--------------------|--7s9------------------|
|------------------------|-----------------------|



|--------------------------------------------------------------|
|------------------------------------------------------15~~----|
|--------------------------------------------------------------|
|--------------------4-5-4---------------12-14brp12-------------|
|----5----5-5----5-7-------7-5-----12-14------------14---------|
|-5h7---7----------------------7/12----------------------------|

WWW.CROSSCANADIANRAGWEED.COM
Suggest correction
Give kudos to tab author, rate the tab!
1 2 3 4 5
comments
print report bad tab
guest
You may want to rate the tab now too:
select rating
Wanna post a correction for this tab? Suggest correction