Oops, an error
Loading. Please wait.

On Your Own Chords

2,559 views 6 this week
no commentswrite comment
1 2 3 4 5
please rate
add to favorites
launch autoscroll
font size
0
reset
transpose
0
reset
display chords
guitar tuner
Autoscroll
slow
fast
+/-
esc
set tempo
stop
Help us to improve Ultimate-Guitar.com Take our survey!
×
Contributor
nuckols 515
WWW.CROSSCANADIANRAGWEED.COM

INTRO
D  F  G  D x3   


D                           C
If I knew where I was going I'd might already be there
G                            D
But I don't know where I've been...
            C                        G                        D
Every town seem to look the same...another year has came and went.
                         C
Runnin' from yesterday, lookin' for tomorrow,
G                      D
Let today just pass me by.
                            C
Searchin' for the answers, open for suggestions...
G                            D
Still the questions cloud my mind...

Bb           C              D
Cause every winter it gets colder,
Bb          C              D
and every summer seems so long,
Bb         C                D
and every road it goes on forever
Bb           C                 D    Bb  C  D  4x
when you're out there on your own.

D         
I met a driftin' woman. 
C  
She was lookin' for the answers
G                     D
and all she had was alibis.
                          C
Well that driftin' woman, I could never trust her...
G                         D
She had a pocket full of lies.
                        C   
So one night I left her in total darkness
G                   D
In a hotel room in Tulsa.
                      C                 
Hey, driftin' woman, where ever you're driftin' now,
G                                      D
I hope you find what you're searchin' for...

Bb           C              D
Cause every winter it gets colder,
Bb          C              D
and every summer seems so long,
Bb         C                D
and every road it goes on forever
Bb           C                 D    Bb  C  D  4x
when you're out there on your own.

D                      C 
I may not find the end to this road I'm takin'.
G                           D
I might not find my pot of gold.
                                  C
But there's always another day, there's always another bend,
G                    D
Another story to be told...

Bb           C              D
Cause every winter it gets colder,
Bb          C              D
and every summer seems so long,
Bb         C                D
and every road it goes on forever
Bb           C                 D   
when you're out there on your own.
Bb           C              D
Cause every winter it gets colder (it gets colder),
Bb          C              D
and every summer seems so long (it seems way too long),
Bb         C                D
and every road it goes on forever (it goes on forever)
Bb           C                 D    Bb  C  D  4x
when you're out there on your own.

-----------------------------------------------------------------------------
The intro
e----------------------------------------------------------------e
B-15-------------------------------------------------------------B
G----14b-11-11-12-11-12-11-12/14-12-12\11-11-11\9----------------G
D----------------------------------------------------------------D
A----------------------------------------------------------------A
E----------------------------------------------------------------E
                                                                              

e-----------------------------------------------------------------e
B-10-7b-----------------------------------------------------------B
G-------7-9-----9b-7----------------------------------------------G
D-----------7-----------------------------------------------------D
A-----------------------------------------------------------------A
E-----------------------------------------------------------------E
                                                                              

e-----------------------------------------------------------------e
B-15--------------------------------------------------------------B
G----14b-11-11-12-11-12-11-12/14-12-12\11-11-11\9-----------------G
D-----------------------------------------------------------------D
A-----------------------------------------------------------------A
E-----------------------------------------------------------------E
                                                                              

e------------------------------------------------------------------e
B------------------------------------------------------------------B
G----------7------9b-7---7-9b-9b-7~~~------------------------------G
D------7-9---9-9-------9-------------------------------------------D
A-7/9--------------------------------------------------------------A
E------------------------------------------------------------------E


The thing after the chorus
e----------------------------------------------------------------e
B----------------------------------------------------------------B
G-----------------12-14-15-14------------------------------------G
D--------12-14-15------------------------------------------------D
A--13-15---------------------------------------------------------A
E----------------------------------------------------------------E
                                                                              

e-----------------------------------------------------------------e
B-----------------------------------------------------------------B
G-----------------------------------------------------------------G
D--------12-14-15-14-12-------------------------------------------D
A--13-15----------------15-12-------------------------------------A
E-----------------------------------------------------------------E
                                                                              

e-----------------------------------------------------------------e
B-----------------------------------------------------------------B
G-----------------12-14-15-14-------------------------------------G
D--------12-14-15-------------------------------------------------D
A--13-15----------------------------------------------------------A
E-----------------------------------------------------------------E


Solo at the end
e----------------------------------------------e
B----------------------------------------------B
G------------10----10-12b-10----10-12b-12b-10--G
D------10-12----12-----------12----------------D
A--/12-----------------------------------------A
E----------------------------------------------E 

e----------------------------------------10-13-10------e
B-------------------------------------------------13b--B
G--------------------10b----------10-12b---------------G
D--10----------10-12-----12-10-12----------------------D
A-----12-10-12-----------------------------------------A
E------------------------------------------------------E

e----------------------------------------------e
B----------------------------------------------B
G--10-12-10---------------------10-------------G
D-----------12---12-10----10-12----12----------D
A----------------------12----------------------A
E----------------------------------------------E

e----------------------------------------------e
B----------------------------------------------B
G------------10----------------10--------------G
D------10-12----12-------10-12----12-----------D
A--/12---------------/12-----------------------A
E----------------------------------------------E

e----------------------------------------------e
B----------------------------------------------B
G------------12-12-12-12-12-12-12b14-----------G
D------10-12-----------------------------------D
A--/12-----------------------------------------A
E----------------------------------------------E

e--------13-15b-15p13----13----------------------------e
B--13-15--------------15----15p13----13-15-13----15----B
G---------------------------------14----------14-------G
D------------------------------------------------------D
A------------------------------------------------------A
E------------------------------------------------------E
comments
We did not receive enough feedback on this tab! Please rate:
print report bad tab
1 2 3 4 5
I want to post or [tab]
guest
You may want to rate the tab now too:
select rating
Please do not post tabs as comments. Select "correction" instead!