Oops, an error
Loading. Please wait.

The Epilogue Bass Tab

version 1
version 1

Whole song

  • It is the first bass tab of this song.

Interactive

19 views 1 this week
no commentswrite comment
1 2 3 4 5
3 more votes to show rating
add to favorites
launch autoscroll
font size
0
reset
guitar tuner
Autoscroll
slow
fast
+/-
esc
set tempo
stop
Help us to improve Ultimate-Guitar.com Take our survey!
×
Author
Difficulty
novice
About this tab version
It is the first bass tab of this song. Was this info helpful? Yes No
[Intro]0:10
G|---------------------------------------------------------------------------------------------|
D|---------------------------------------------------------------------------------------------|
A|---------------------------------------------------------------------------------------------|     x3
E|-7--7--7--7--7--5--7----10--10--10--10--10----12\5--5--5--5--5--3--5----3--5--3--5--3--5--5--|     

[Verse]0:42
G|---------------------------------------------------------------------------------------------------------|
D|---------------------------------------------------------------------------------------------------------|
A|---------------------------------------------------------------------------------------------------------|
E|-7--7--7--7--7--5--7----10--10--10--10--10----12\5--5--5--5--5--3--5----3--5--3--5--3--5--5----5---3--5--|

G|-----------------------------------------------------------|
D|-----------------------------------------------------------|
A|-----------------------------------------------------------|
E|-7--7--7--7--7--5--7----10--10--10--10--10----12\0~----3~--|

[Chorus]1:04
G|------------------------------------------------------------------------|
D|------------------------------------------------------------------------|
A|------------------2--2-2--2-2--2-2--5--5-5--5-5--5-5--------------------|
E|---0--0---0--0-0--------------------------------------5--5-5--5-5--5-5--|

G|---------------------------------------------------------------------------|
D|---------------------------------------------------------------------------|
A|---------------------2--2-2--2-2--2-2--5--5-5--5-5--5-5--------------------|
E|---0--0-0--0-0--0-0--------------------------------------5--5-5--5-5--5-5~-|

[Verse]1:28
G|--------------------------------------------------------------------------------------------------------|
D|--------------------------------------------------------------------------------------------------------|
A|--------------------------------------------------------------------------------------------------------|
E|-7--7--7--7--7--5--7----10--10--10--10--10----12\5--5--5--5--5--3--5----3--5--3--5--3--5--5----5---3--5-|

G|--------------------------------------------------------------|
D|--------------------------------------------------------------|
A|--------------------------------------------------------------|
E|-7--7--7--7--7--5--7----10--10--10--10--10----12\0~----12\3~--|

G|--------------------------------------------------------------------------------------------------|
D|--------------------------------------------------------------------------------------------------|
A|--------------------------------------------------------------------------------------------------|
E|-7--7--7--7--7--5--7----10--10--10--10--10----5--5--5--5--5--3--5----3--5--3--5----5----3--5---5--|

G|---------------------------------------------------------------------------|
D|-----------------------------------------------------5----7----9----11-----|
A|---------------------------------------------------------------------------|
E|-7--7--7--7--7--5--7----10--10--10--10--10----12\0~-----3----5----7----9---|

[Chorus]2:11
G|------------------------------------------------------------------------|
D|------------------------------------------------------------------------|
A|------------------2--2-2--2-2--2-2--5--5-5--5-5--5-5--------------------|
E|---0--0---0--0-0--------------------------------------5--5-5--5-5--5-5--|

G|--------------------------------------------------------------------------|
D|--------------------------------------------------------------------------|
A|---------------------2--2-2--2-2--2-2--5--5-5--5-5--5-5-------------------|
E|---0--0-0--0-0--0-0--------------------------------------5--5-5--5-5--5-5-|

G|-----------------------------------------------------------------------------------------|
D|-----------------------------------------------------------------------------------------|
A|-5--5---5--5--7--7---7--7--------------------5--5---5--5--7--7---7--7--------------------|     x2
E|---------------------------7--7-7--7-7--7-7----------------------------7--7-7--7-7--7-7--|

G|--------------------------|
D|--------------------------|
A|--------------------------|          
E|-5~---5/7~---7\5~---5/7~--|

G|------------------------------------------------------------------------|
D|------------------------------------------------------------------------|
A|------------------2--2-2--2-2--2-2--5--5-5--5-5--5-5--------------------|
E|---0--0---0--0-0--------------------------------------5--5-5--5-5--5-5--|

G|--------------------------------------------------------------------------|
D|--------------------------------------------------------------------------|
A|---------------------2--2-2--2-2--2-2--5--5-5--5-5--5-5-------------------|             x2
E|---0--0-0--0-0--0-0--------------------------------------5--5-5--5-5--5-5-|

G|---------------------------------------------------------------------------|
D|---------------------------------------------------------------------------|
A|---------------------2--2-2--2-2--2-2--5--5-5--5-5--5-5--------------------|
E|---0--0-0--0-0--0-0--------------------------------------5--5-5--5-5--5-5~-|
   
************************************
| /   Slide up
| \   Slide down
| ~   Vibrato
************************************
Suggest correction
Give kudos to tab author, rate the tab!
1 2 3 4 5
comments
print report bad tab
guest
You may want to rate the tab now too:
select rating
Wanna post a correction for this tab? Suggest correction