Oops, an error
Loading. Please wait.

Already Gone Bass Tab

version 1
version 1

Whole song

Interactive

739 views 1 this week
no commentswrite comment
1 2 3 4 5
please rate
add to favorites
launch autoscroll
font size
0
reset
guitar tuner
Tab Pro tools
  • play this tab
  • loop segment
  • change instrument
  • show fretboard
  • metronome
Autoscroll
slow
fast
+/-
esc
set tempo
stop
Difficulty
intermediate
This is my first tab and might not be exactly right but I played it like this with my 
band and it rocked!
Rest until 0:22
Verse 1
Repeat 3x
------------|
------------|
5-5-5-4-----|
------------|

------------------------------------------|
------------------------------------------|
5-4-3-2---2--2---3--3---4-4-4-4-----------|
------------------------------------------|

Repeat 15x
------------|
------------|
5-5-5-7-----|
------------|

Chorus (1:00)
Repeat 3x
---------------------------------------------------------|
---------------------------------------------------------|
-55-6-7--55-6-7--55-6-7--5-43-3-3-3-3----3---------------|
---------------------------------------------------------|
Repeat 2x
----------------------------------------------------------|
----------------------------------------------------------|
-------------------------------5----2--2------------------|
-5----2--2----5----2--2------------------5----2--2--------|

Verse 2 (1:38)
------------------------------------------|
------------------------------------------|
5-4-3-2---2--2---3--3---4-4-4-4-----------|
------------------------------------------|

Repeat 15x
------------|
------------|
5-5-5-7-----|
------------|


Chorus (2:09)
Repeat 3x
---------------------------------------------------------|
---------------------------------------------------------|
-55-6-7--55-6-7--55-6-7--5-43-3-3-3-3----3---------------|
---------------------------------------------------------|
Repeat 2x
----------------------------------------------------------|
----------------------------------------------------------|
-------------------------------5----2--2------------------|
-5----2--2----5----2--2------------------5----2--2--------|

(2:32)
Repeat 3x
------------------------------------|
---------2---2------------2---2-----|
2---2------------2---2--------------|
------------------------------------|

Solo (2:56) rest until (3:01) when lead gutiar comes back in
Repeat 4x
-------------------------------------------------|
-7-6-5-4--7-6-5-4--4-5-6-7--4-5-6-7--------------|
-------------------------------------------------|
-------------------------------------------------|

Rest until end
comments
We did not receive enough feedback on this tab! Please rate:
print report bad tab
1 2 3 4 5
I want to post or [tab]
guest
You may want to rate the tab now too:
select rating
Please do not post tabs as comments. Select "correction" instead!