Oops, an error
Loading. Please wait.

Already Gone tab

version 1
version 1

Whole song

Interactive

32,341 views 9 this week
7 commentsread comments
1 2 3 4 5
x 13
add to favorites
×
Save as Personal and add changes to this tab that will be seen only by you. Learn more ›
×
You can save this tab as Personal to edit and correct it or add notes. All changes will be seen only by you. Learn more »
launch autoscroll
font size
0
reset
how to read this tab
guitar tuner
edit
Autoscroll
slow
fast
+/-
esc
set tempo
stop
Song         : Already Gone
Band         : Crossfade
Tabbed by    : Brandon Philip Llapitan
E-add/Cp No. : brandon_rakista@yahoo.com/09064856396
Tuning       : Drop Db Tuning

Intro :

(Acoustic)
eb-------------------------------------------------------------|
bb-------------------------------------------------------------|
gb-9-999----7-777----6-66-6b7r6---------------------------4-44-|2x
db-7-777----7-777----7-77-------7-6----7-7777-777----2-2222-22-|
ab-7-777----5-555----4-44--------------4-4444-444----2-2222-22-|
Db-7-777----0-000----------------------4-4444-444----2-2222-22-|


Verse :

(Acoustic)
eb-------------------------------------------------------------|
bb-------------------------------------------------------------|
gb-9-999----7-777----6-66-6b7r6---------------------------4-44-|
db-7-777----7-777----7-77-------7-6----7-7777-777----2-2222-22-|
ab-7-777----5-555----4-44--------------4-4444-444----2-2222-22-|
Db-7-777----0-000----------------------4-4444-444----2-2222-22-|

eb-------------------------------------------------------------|
bb-------------------------------------------------------------|
gb-9-999----7-777----6-66-6b7r6--------------------------------|
db-7-777----7-777----7-77-------7-6----7-7777-777----2~----2~--|
ab-7-777----5-555----4-44--------------4-4444-444----2~----2~--|
Db-7-777----0-000----------------------4-4444-444----2~----2~--|
                                                  -Wah effects?-

eb-------------------------------------------------------------|
bb-------------------------------------------------------------|
gb-6/11-11-x-11\6-6-xx-6/11-11-x-14-13-11-6-66-6h7p6-4-44/9-99-|
db-x-x--x--x-x--x-x-xx-x-x--x--x-x--x--x--x-xx-------x-xx/x-xx-|
ab-4/9--9--x-9\-4-4-xx-4/9--9--x-12-11-9--4-44-------2-22/7-77-|
Db-------------------------------------------------------------|

eb-------------------------------------------------------------------------|
bb-------------------------------------------------------------------------|
gb-------------------------------------------------------------------------|
db-------------------------------------------------------------------------|
ab-0h5-5---0h5-5---0h5-5---------------------------------------------------|
Db-------0-------0-------0--11b12r11\7--0h4-4--4-0h4-4--4-0h4-4--0-4-6-7---|
  |----------Pm-----------|            |---------------Pm------------------|

eb--------------------------------------------------------|
bb--------------------------------------------------------|
gb--------------------------------------------------------|
db----------------------------------------------4~~-2~~---|
ab-0h5-5---0h5-5---0h5-5------------------------4~~-2~~---|
Db-------0-------0-------0--11b12r11\7--0h4-4-4-4~~-2~~---|
  |----------Pm-----------|            |--Pm--------------|

eb-------------------------------------------------------------------------|
bb-------------------------------------------------------------------------|
gb-------------------------------------------------------------------------|
db-------------------------------------------------------------------------|
ab-0h5-5---0h5-5---0h5-5---------------------------------------------------|
Db-------0-------0-------0--11b12r11\7--0h4-4--4-0h4-4--4-0h4-4--0-4-6-7---|
  |----------Pm-----------|            |---------------Pm------------------|

eb--------------------------------------------------------|
bb--------------------------------------------------------|
gb--------------------------------------------------------|
db----------------------------------------------4~~-2~~---|
ab-0h5-5---0h5-5---0h5-5------------------------4~~-2~~---|
Db-------0-------0-------0--11b12r11\7--0h4-4-4-4~~-2~~---|
  |----------Pm-----------|            |--Pm--------------|

eb-----------------------------------------------------------------------------------|
bb-----------------------------------------------------------------------------------|
gb----------9-----------9---6-7-6-7--6--6-7-6-------9-7-6-7-6-------11-9-------------|
db-6-7-6-7-----6-7-6-7-------------------------7-7-------------9-9-------------------|
ab------------------------------------------------------------------------/5-4-------|
Db-----------------------------------------------------------------------------7-4---|
  |---Pm--|   |---Pm--|    |---Pm--|         |-Pm-|          |-Pm--------------------|


Chorus :

Listen to the song for the strumming
eb----------------------------------------------------|
bb----------------------------------------------------|
gb-----------------7----------------------------------|2x
db-4---------------5---------------7----------------2-|
ab-4---------------5---------------7----------------2-|
Db-4-------------------------------7----------------2-|

Intro 2 : (I’m not sure in this part)
eb------------------------------------------------------------------------------------|
bb------------------------------------------------------------------------------------|
gb-13-14-14-14-14-14-13-14-------------(6x)-then-13-14-14-14-14-14(3x) then-16-14-16~-|
db-------------------------16-16-16-16------------------------------------------------|
ab------------------------------------------------------------------------------------|
Db------------------------------------------------------------------------------------|


Verse 2 :
eb-------------------------------------------------------------------------|
bb-------------------------------------------------------------------------|
gb-------------------------------------------------------------------------|
db-------------------------------------------------------------------------|
ab-0h5-5---0h5-5---0h5-5---------------------------------------------------|
Db-------0-------0-------0--11b12r11\7--0h4-4--4-0h4-4--4-0h4-4--0-4-6-7---|
  |----------Pm-----------|            |---------------Pm------------------|

eb--------------------------------------------------------|
bb--------------------------------------------------------|
gb--------------------------------------------------------|
db----------------------------------------------4~~-2~~---|
ab-0h5-5---0h5-5---0h5-5------------------------4~~-2~~---|
Db-------0-------0-------0--11b12r11\7--0h4-4-4-4~~-2~~---|
  |----------Pm-----------|            |--Pm--------------|

eb-------------------------------------------------------------------------|
bb-------------------------------------------------------------------------|
gb-------------------------------------------------------------------------|
db-------------------------------------------------------------------------|
ab-0h5-5---0h5-5---0h5-5---------------------------------------------------|
Db-------0-------0-------0--11b12r11\7--0h4-4--4-0h4-4--4-0h4-4--0-4-6-7---|
  |----------Pm-----------|            |---------------Pm------------------|

eb--------------------------------------------------------|
bb--------------------------------------------------------|
gb--------------------------------------------------------|
db----------------------------------------------4~~-2~~---|
ab-0h5-5---0h5-5---0h5-5------------------------4~~-2~~---|
Db-------0-------0-------0--11b12r11\7--0h4-4-4-4~~-2~~---|
  |----------Pm-----------|            |--Pm--------------|

eb-----------------------------------------------------------------------------------|
bb-----------------------------------------------------------------------------------|
gb----------9-----------9---6-7-6-7--6--6-7-6-------9-7-6-7-6-------11-9-------------|
db-6-7-6-7-----6-7-6-7-------------------------7-7-------------9-9-------------------|
ab------------------------------------------------------------------------/5-4-------|
Db-----------------------------------------------------------------------------7-4---|
  |---Pm--|   |---Pm--|    |---Pm--|         |-Pm-|          |-Pm--------------------|


(Repeat Chorus)

Bridge: (Delay Effects?)
eb------------------------------------------------------------------------|
bb------------------------------------------------------------------------|
gb------------------------------------------------------6-------6-------4-|3x
db---0---0---4----0---0---4----0---0---4----0---0---4---7-------7-------6-|
ab-5---5---5----5---5---5----5---5---5----5---5---5---5---0-0-0---0-0-0---|
Db------------------------------------------------------------------------|

I don’t Know this part(02:54-03:01) so figure it out

Then
(I’m not sure in this part)
eb------------------------------------------------------------------------------------|
bb------------------------------------------------------------------------------------|
gb-13-14-14-14-14-14-13-14-------------(6x)-then-13-14-14-14-14-14(3x) then-16-14-16~-|
db-------------------------16-16-16-16------------------------------------------------|
ab------------------------------------------------------------------------------------|
Db------------------------------------------------------------------------------------|

Outro :

eb-----------------------------------------|
bb-----------------------------------------|
gb-----9-------------6-------------4-------|
db-------7---7---------4---4---------2---2-|
ab---7-----7-------4-----4-------2-----2---|
Db-7-------------4-------------2-----------|

eb-------------------------------------------|
bb-------------------------------------------|
gb-----9-------------6-------------4---------|
db-------7---7---------4---4---------2(pause)|
ab---7-----7-------4-----4-------2-----------|
Db-7-------------4-------------2-------------|


Guitar Legend :

p  = pull
h  = hammer
b  = bend
r  = release
~  = let ring
Pm = palm mute
x  = muted note
/  = slide up
\  = slide down

            
            
Suggest correction
Creating personal tab
Creating personal tab
You can edit any tab online and save it as your Personal.

You can edit, replace or remove any tab part or add personal notes – all changes will be seen only by you.

Personal tabs can be accessed anytime from any device, even offline.
Learn more »
comments
print report bad tab
7 comments total. Showing first comments.
0 reply
Artres 10 Jun 02, 2007 01:42 PM

great job !!
cool tab!

0 reply
Kryfer 10 Jun 02, 2007 07:28 PM

Not bad! Crossfade is hard to tab, but let's keep going! :)

-1 reply
daylightdies370 339 Dec 20, 2007 05:41 PM

does anyone have this song on guitar pro?

if you post it on here

guest
You may want to rate the tab now too:
select rating
Wanna post a correction for this tab? Suggest correction