Oops, an error
Loading. Please wait.

Cold Tab

version 1
version 1

Whole song

Interactive

19,747 views 9 this week
no commentswrite comment
1 2 3 4 5
accurate
x 3
add to favorites
launch autoscroll
font size
0
reset
how to read this tab
guitar tuner
Tab Pro tools
  • play this tab
  • loop segment
  • change instrument
  • show fretboard
  • metronome
×
Best way to learn
"Cold"
Autoscroll
slow
fast
+/-
esc
set tempo
stop
Contributor
Tabbed by: Tewan and a few friends

Here is the solo for the middle of the song. I'm sure this is close, if not, to 100%. 
all of this is my work, most of it is my friend.

b = bend full
/ and \ = slide
= = spacer
[ ] = tie together


E|-------------------------------------------------------------------------------------|
B|-------------------------------------------------------------------------------------|
G|---12b--[(12)\10]-[(10)/12]--10-----------------[(12)/14]--12--10-------12-[(7)/9]---|
D|---------------------------------------[10---12]-------------------------------------|
A|-------------------------------------------------------------------------------------|
D|-------------------------------------------------------------------------------------|
A|-------------------------------------------------------------------------------------|


E|-------------------------------------------------------------------------------------|
B|--------------------------------13-[13\11\10][(10)/11]-10[(10)/11]--[10\8]-----------|
G|--[(9)/10]-------------------------[-x------]-----------x[--x----]--[-x--]-----------|
D|------------[10/12]--[(12)\10]-----[10\=8\=7][-(7)/=8]-=7[-(7)/=8]--[-7\5]-----------|
A|-------------------------------------------------------------------------------------|
D|-------------------------------------------------------------------------------------|
A|-------------------------------------------------------------------------------------|


E|----------------------5--------------------------------------------------------------|
B|------------------------8--6--5------------------------------------------------------|
G|---------------------------------7--5------------------------------------------------|
D|---10-[10\8\7]-------------------------8--7--5----[7--8--10]--------------/10--------|
A|------------------------------------------------8-------------------------/8---------|
D|--------------------------------------------------------------------------/8---------|
A|--------------------------------------------------------------------------/8---------|
comments
We did not receive enough feedback on this tab! Please rate:
print report bad tab
1 2 3 4 5
I want to post or [tab]
guest
You may want to rate the tab now too:
select rating
Please do not post tabs as comments. Select "correction" instead!