Oops, an error
Loading. Please wait.

Cold Tab

version 2
version 2

Whole song

Interactive

32,007 views 3 this week
9 commentsread comments
1 2 3 4 5
x 20
add to favorites
launch autoscroll
font size
0
reset
how to read this tab
guitar tuner
×
Best way to learn
"Cold"
Autoscroll
slow
fast
+/-
esc
set tempo
stop
-------------------------------------------------------------------------------
                             Cold - Crossfade
-------------------------------------------------------------------------------
Tabbed by:One of Your buddys
Email:corvettemast@netscape.net

Tuning:Tune to drop D

Verse 1: Looking back at me...
e|---------------------------------------------------------------------------|
B|---------------------------------------------------------------------------|
G|---------------------------------------------------------------------------|
D|0---0--0-0-0--0-0-0---10--10--10-10-10--7-7--------three times-------------|
A|0---0--0-0-0--0-0-0----8---8---8--8--8--7-7--------------------------------|
D|0---0--0-0-0--0-0-0----8---8---8--8--8--7-7--------------------------------|

e|---------------------------------------------------------------------------|
B|---------------------------------------------------------------------------|
G|---------------------------------------------------------------------------|
D|0---0--0-0-0--0-0-0---8-8-8-8-8-8-8-8-8-8-8-8-8----------------------------|
A|0---0--0-0-0--0-0-0---8-8-8-8-8-8-8-8-8-8-8-8-8----------------------------|
D|0---0--0-0-0--0-0-0---8-8-8-8-8-8-8-8-8-8-8-8-8----------------------------|

Verse 2   Repeat Twice
e|------------------------------------------------------------------------------------------|
B|------------------------------------------------------------------------------------------|
G|------------------------------------------------------------------------------------------|
D|8--8--8-----8--8--8--8---8-----8--10--10-10----10-10-10-10-10-10\---3-3/8-88888-10101010--|
A|8--8--8-----8--8--8--8---8-----8--10--10-10----10-10-10-10-10-10\---3-3/8-88888-10101010--|
D|8--10-10h12-12-10-10-10--10h12-10-12--12-12h14-14-12-10-10-10-10\---3-3/8-88888-10101010--|
                     . .

 Repeat Verse 1

 Then Repeat Verse 2

 Acoustic
e|------------------------------------------------------------------------------------------|
B|------------------------------------------------------------------------------------------|
G|------------------------------------------------------------------------------------------|
D|8--8--8-----8--8--8--8---8-----8--10--10-10----10-10-10-10-10-10\---3-3/8-88888-10101010--|
A|8--8--8-----8--8--8--8---8-----8--10--10-10----10-10-10-10-10-10\---3-3/8-88888-10101010--|
D|8--10-10h12-12-10-10-10--10h12-10-12--12-12h14-14-12-10-10-10-10\---3-3/8-88888-10101010--|
                     . .
 Solo
e|---------------------------------------------------------------------------|
B|-----10-8-6-8-6----------10-8-6-8-5---5-5h6-6-3-1-2-2-3-2-3-0-3-3-5-3-5-5--|
G|-5-7----------------5-7----------------------------------------------------|
D|---------------------------------------------------------------------------|
A|---------------------------------------------------------------------------|
D|---------------------------------------------------------------------------|

 Repeat Verse 2  Do 4 Times

That's it you should have it down!

| /  slide up
| \  slide down
| h  hammer-on
| p  pull-off
| ~  vibrato
| +  harmonic
| x  Mute note
===============================================================================
Suggest correction
comments
print report bad tab
9 comments total. Showing first comments.
0 reply
corvettemast 10 Jul 18, 2004 08:00 PM

I made a mistake on the solo of this song but here is what it should be...

e|---------------------------------------------------------------------------|
B|----10-8-6-8-6----10-8-6-8-5---5-5h6-6-3-1-------------------------|
G|5-7------------5-7-------------------------2-2-3-2-3-0-3-3-5-3-5-5-|
D|---------------------------------------------------------------------------|
A|---------------------------------------------------------------------------|
D|---------------------------------------------------------------------------|

0 reply
apollo66 10 Nov 28, 2004 07:00 PM

I was fooling around and I was wondering if this could be another way to play the solo

e--------------------------------------------------------
B--------------------------------------------------------
G----10-14-12-10-12-10----10-14-12-10-12-9-10------------
D-12-------------------12---------------------12---------
A--------------------------------------------------------
D--------------------------------------------------------


There's a slide here somewhere but I dunno what it is
V
e--------------------------------------------------------
B-13-11-10-10-11-10-10-11-10---13-11-10-10-11------------
G----------------------------9---------------------------
D------------------------------------------------------9-
A--------------------------------------------------------
D--------------------------------------------------------

0 reply
Silenzo666 40 Jul 07, 2005 08:00 PM

great tab, but the solo sounds a little off to me

guest
You may want to rate the tab now too:
select rating
Wanna post a correction for this tab? Suggest correction