Oops, an error
Loading. Please wait.

Cold Acoustic tab

version 5
version 5
36,763 views 39 this week
9 commentsread comments
1 2 3 4 5
x 7
add to favorites
×
Save as Personal and add changes to this tab that will be seen only by you. Learn more ›
×
You can save this tab as Personal to edit and correct it or add notes. All changes will be seen only by you. Learn more »
launch autoscroll
font size
0
reset
how to read this tab
guitar tuner
edit
Autoscroll
slow
fast
+/-
esc
set tempo
stop
I was tired of all the incorrect versions of this song - This is almost 100% correct.
No solo yet-it's very similar to the original though.  Listen to the song to get the
strumming down and to hear how long to hold the notes.  - Big B    

Tuning:(Drop "D" full step down)CGCFad

Intro:
d|-2---2-2-2---------------2---2-2-2------------------------------|
a|-2h3-2-2-2—--3~~~--------2h3-2-2-2---3~~~-----------------------|
F|-4---4-4-4—--2~~~--------4---4-4-4---2~~~-----------------------|
C|-4---4-4-4---------4-4---4---4-4-4------------------------------|
G|-2---2-2-2---------4-4---2---2-2-2------------------------------|
C|-------------5~~~--4-4---------------5~~~-----------------------|

Verse 1:
  Looking back at me I see that I never really got it right! 
d|-------------------2---2---2---2---2---2---2--------------------|
a|-------------------2h3-2---2---2---2---2---2---------3-3-3------|
F|-------------------4---4---4---4---4---4---4---------2-2-2------|
C|-------------------4---4---4---4---4---4---4--------------------|
G|-------------------2---2---2---2---2---2---2--------------------|
C|-----------------------------------------------------5-5-5------|

  I never stopped to think of you!
d|----------------------------------------------------------------|
a|---3-3----------------------------------------------------------|
F|---2-2----------------------------------------------------------|
C|-----------------------------4----------------------------------|
G|-----------------------------4----------------------------------|
C|---5-5-----------------------4----------------------------------|

  I'm always wrapped up in things I cannot win.
d|-----------2---2---2---2---2---2---2----------------------------|
a|-----------2h3-2---2---2---2---2---2------3-3-3-----------------|
F|-----------4---4---4---4---4---4---4------2-2-2-----------------|
C|-----------4---4---4---4---4---4---4-----------------44---------|
G|-----------2---2---2---2---2---2---2-----------------44---------|
C|------------------------------------------5-5-5------44---------|

  You are the antidote that gets me by, something strong like a drug 
d|--2---2---2---2---2---2---2-------------------------------------|
a|--2h3-2---2---2---2---2---2----------3--3--3--3--3--3--3--3--3--|
F|--4---4---4---4---4---4---4----------2--2--2--2--2--2--2--2--2--|
C|--4---4---4---4---4---4---4-------------------------------------|
G|--2---2---2---2---2---2---2-------------------------------------|
C|-------------------------------------5--5--5--5--5--5--5--5--5--|

      that gets me . . . 
d|---------------------------------------------------------------|
a|--3---3---3---3------------------------------------------------|
F|--2---2---2---2------------------------------------------------|
C|---------------------------------------------------------------|
G|---------------------------------------------------------------|
C|--5---5---5---5------------------------------------------------|

      Hiiiiiiiiiiiiiiiigggggggggggggggggghhhhhhhhhhh!!!!!!
d|-2---2---2---2---2---------------------------------------------|
a|-2h3-2---2---2---2----3--3--3--3--3--3--3--3--3--3-------------|
F|-4---4---4---4---4----2--2--2--2--2--2--2--2--2--2-------------|
C|-4---4---4---4---4-----------------------------------------4---|
G|-2---2---2---2---2-----------------------------------------4---|
C|----------------------5--5--5--5--5--5--5--5--5--5---------4---|
			p.m
Chorus:
   What I really meant to say is I'm sorry for the way I am
d|-------------------2--2-2--------------------------------------|
a|--------3--3--3----2h32-2--------------------------------------|
F|--------2--2--2----4--4-4-----2---2---2---2---2---2---2--------|
C|-------------------4--4-4-----2---2---2---2---2---2---2--------|
G|-------------------2--2-2-----0---0---0---0---0---0---0--------|
C|--------5--5--5------------------------------------------------|

  I never meant to be so cold, I never meant to be so cold
d|--------------2--2-2-------------------------------------------|
a|---3--3--3----2h32-2-------------------------------------------|
F|---2--2--2----4--4-4-----2---2---2---2---2---2---2---2---2-----|
C|--------------4--4-4-----2---2---2---2---2---2---2---2---2-----|
G|--------------2--2-2-----0---0---0---0---0---0---0---0---0-----|
C|---5--5--5-----------------------------------------------------|

  What I really meant to say is I'm sorry for the way I am
d|-------------------2--2-2--------------------------------------|
a|--------3--3--3----2h32-2--------------------------------------|
F|--------2--2--2----4--4-4-----2---2---2---2---2---2---2--------|
C|-------------------4--4-4-----2---2---2---2---2---2---2--------|
G|-------------------2--2-2-----0---0---0---0---0---0---0--------|
C|--------5--5--5------------------------------------------------|

  I never meant to be so cold, I never meant to be so
d|--------------2--2-2-------------------------------------------|
a|---3--3--3----2h32-2-------------------------------------------|
F|---2--2--2----4--4-4-----2---2---2---2---2---2---22------------|
C|--------------4--4-4-----2---2---2---2---2---2---22------------|
G|--------------2--2-2-----0---0---0---0---0---0---00------------|
C|---5--5--5-----------------------------------------------------|

Verse 2:
  Cold! To you I'm sorry about all the lies.
d|-2---2---2---2---2---2---2-------------------------------------|
a|-2h3-2---2---2---2---2---2---------3~~~~-----------------------|
F|-4---4---4---4---4---4---4---------2~~~~-----------------------|
C|-4---4---4---4---4---4---4-------------------------------------|
G|-2---2---2---2---2---2---2-------------------------------------|
C|-----------------------------------5~~~~-----------------------|

   Maybe in a different light.
d|---------------------------------------------------------------|
a|---------------------------------------------------------------|
F|---------------------------------------------------------------|
C|--------------------------4------------------------------------|
G|--------------------------4------------------------------------|
C|--------------------------4------------------------------------|
  
  You could see me stand on my own again. Cause now I can see
d|-2---2---2---2---2---2---2-------------------------------------|
a|-2h3-2---2---2---2---2---2---------3--3--3--3--3--3------------|
F|-4---4---4---4---4---4---4---------2--2--2--2--2--2------------|
C|-4---4---4---4---4---4---4--------------------------------4----|
G|-2---2---2---2---2---2---2--------------------------------4----|
C|-----------------------------------5--5--5--5--5--5-------4----|

  You were the antidote that got me by, something strong like a drug
d|--2---2---2---2---2---2---2-------------------------------------|
a|--2h3-2---2---2---2---2---2----------3--3--3--3--3--3--3--3--3--|
F|--4---4---4---4---4---4---4----------2--2--2--2--2--2--2--2--2--|
C|--4---4---4---4---4---4---4-------------------------------------|
G|--2---2---2---2---2---2---2-------------------------------------|
C|-------------------------------------5--5--5--5--5--5--5--5--5--|

      that got me....
d|---------------------------------------------------------------|
a|--3---3---3---3------------------------------------------------|
F|--2---2---2---2------------------------------------------------|
C|---------------------------------------------------------------|
G|---------------------------------------------------------------|
C|--5---5---5---5------------------------------------------------|
  
     Hiiiiiiiiiiiiiiiiiiggggggggggggggghhhhhhhhhhh!!!!!!
d|-2---2---2---2---2---------------------------------------------|
a|-2h3-2---2---2---2----3--3--3--3--3--3--3--3--3--3-------------|
F|-4---4---4---4---4----2--2--2--2--2--2--2--2--2--2-------------|
C|-4---4---4---4---4------------------------------------------4--|
G|-2---2---2---2---2------------------------------------------4--|
C|----------------------5--5--5--5--5--5--5--5--5--5----------4--|

			p.m
Chorus again

Bridge:
                              (never meant to be) 
d|---------------------------------------------------------------|
a|---------------------------------------------------------------|
F|---------------------------------------------------------------|
C|-5h7--7h9—---11h12p11p9--9--7--7--7--7--7--7--7----------------|
G|-5----5------9-----9--9--7--7--7--7--7--7--7--7----------------|
C|-5----5------9-----9--9--7--7--7--7--7--7--7--7----------------|
  
        Sooooooooo   coold
d|---------------------------------------------------------------|
a|---------------------------------------------------------------|
F|---------------------------------------------------------------|
C|-5h7--7h9—---11h12p11p9--9--7--7--7--7--7--7--7----------------|
G|-5----5------9-----9--9--7--7--7--7--7--7--7--7----------------|
C|-5----5------9-----9--9--7--7--7--7--7--7--7--7----------------|

Interlude: 
  Oooooooooooooooooooooooooooooooooooooooooooooooooooooooooh
d|-------------------2--2-2--------------------------------------|
a|--------3--3--3----2h32-2--------------------------------------|
F|--------2--2--2----4--4-4-----2---2---2---2---2---2---2--------|
C|-------------------4--4-4-----2---2---2---2---2---2---2--------|
G|-------------------2--2-2-----0---0---0---0---0---0---0--------|
C|--------5--5--5------------------------------------------------|

  Ooooooooooooooooooooooooooooooooh  aaaaaaaaaaaaaaahhhhhhh
d|-------------------2--2-2--------------------------------------|
a|--------3--3--3----2h32-2--------------------------------------|
F|--------2--2--2----4--4-4-----2---2---2---2---2---2---2--------|
C|-------------------4--4-4-----2---2---2---2---2---2---2--------|
G|-------------------2--2-2-----0---0---0---0---0---0---0--------|
C|--------5--5--5------------------------------------------------|
 
              I never really wanted you to see 
d|-------------------2--2-2--------------------------------------|
a|--------3--3--3----2h32-2--------------------------------------|
F|--------2--2--2----4--4-4-----------------2---2---2---2--------|
C|-------------------4--4-4-----------------2---2---2---2--------|
G|-------------------2--2-2-----------------0---0---0---0--------|
C|--------5--5--5------------------------------------------------|

  The screwed up side of me that I keep
d|---------------------------------------------------------------|
a|---------------------------------------------------------------|
F|-2---2---2---2---2---2---2---2---2-----------------------------|
C|-2---2---2---2---2---2---2---2---2-----------------------------|
G|-0---0---0---0---0---0---0---0---0-----------------------------|
C|---------------------------------------------------------------|

              Locked inside of me so deep
d|-------------------2--2-2--------------------------------------|
a|--------3--3--3----2h32-2--------------------------------------|
F|--------2--2--2----4--4-4-------------2---2---2---2---2--------|
C|-------------------4--4-4-------------2---2---2---2---2--------|
G|-------------------2--2-2-------------0---0---0---0---0--------|
C|--------5--5--5------------------------------------------------|

  It always seem to get to me
d|---------------------------------------------------------------|
a|---------------------------------------------------------------|
F|-2---2---2---2---2---2---2---2---2-----------------------------|
C|-2---2---2---2---2---2---2---2---2-----------------------------|
G|-0---0---0---0---0---0---0---0---0-----------------------------|
C|---------------------------------------------------------------|

               I never really  wanted you to go 
d|-------------------2--2-2--------------------------------------|
a|--------3--3--3----2h32-2--------------------------------------|
F|--------2--2--2----4--4-4-----------------2---2---2---2--------|
C|-------------------4--4-4-----------------2---2---2---2--------|
G|-------------------2--2-2-----------------0---0---0---0--------|
C|--------5--5--5------------------------------------------------|

  So many things you should have known
d|---------------------------------------------------------------|
a|---------------------------------------------------------------|
F|-2---2---2---2---2---2---2---2---2-----------------------------|
C|-2---2---2---2---2---2---2---2---2-----------------------------|
G|-0---0---0---0---0---0---0---0---0-----------------------------|
C|---------------------------------------------------------------|

               I guess for me there's just no hope.
d|-------------------2--2-2--------------------------------------|
a|--------3--3--3----2h32-2--------------------------------------|
F|--------2--2--2----4--4-4-----------------2---2---2---2--------|
C|-------------------4--4-4-----------------2---2---2---2--------|
G|-------------------2--2-2-----------------0---0---0---0--------|
C|--------5--5--5------------------------------------------------|

  I never meant to be so (fades into chorus)
d|---------------------------------------------------------------|
a|---------------------------------------------------------------|
F|-2---2---2---2---2---2---2---2---2-----------------------------|
C|-2---2---2---2---2---2---2---2---2-----------------------------|
G|-0---0---0---0---0---0---0---0---0-----------------------------|
C|---------------------------------------------------------------|

End Chorus:
What I really meant to saaaaay     is I'm sorry for the way 
d|-------------------2--2-2--------------------------------------|
a|--------3--3--3----2h32-2--------------------------------------|
F|--------2--2--2----4--4-4-----2---2---2---2---2---2---2--------|
C|-------------------4--4-4-----2---2---2---2---2---2---2--------|
G|-------------------2--2-2-----0---0---0---0---0---0---0--------|
C|--------5--5--5------------------------------------------------|

     I aaaaaaaammmmmmmmm
d|-------------2--2-2--------------------------------------------|
a|--3--3--3----2h32-2--------------------------------------------|
F|--2--2--2----4--4-4-----2---2---2---2---2---2---2--------------|
C|-------------4--4-4-----2---2---2---2---2---2---2--------------|
G|-------------2--2-2-----0---0---0---0---0---0---0--------------|
C|--5--5--5------------------------------------------------------|

  What I really meant to saaaaay     is I'm sorry for the way 
d|-------------------2--2-2--------------------------------------|
a|--------3--3--3----2h32-2--------------------------------------|
F|--------2--2--2----4--4-4-----2---2---2---2---2---2---2--------|
C|-------------------4--4-4-----2---2---2---2---2---2---2--------|
G|-------------------2--2-2-----0---0---0---0---0---0---0--------|
C|--------5--5--5------------------------------------------------|

  I aaaaaaaammmmmmmmm
d|-------------2--2-2--------------------------------------------|
a|--3--3--3----2h32-2--------------------------------------------|
F|--2--2--2----4--4-4-----2---2---2---2---2---2---2--------------|
C|-------------4--4-4-----2---2---2---2---2---2---2--------------|
G|-------------2--2-2-----0---0---0---0---0---0---0--------------|
C|--5--5--5------------------------------------------------------|

            
            
Suggest correction
Creating personal tab
Creating personal tab
You can edit any tab online and save it as your Personal.

You can edit, replace or remove any tab part or add personal notes – all changes will be seen only by you.

Personal tabs can be accessed anytime from any device, even offline.
Learn more »
comments
print report bad tab
9 comments total. Showing first comments.
0 reply
Tru 100 May 10, 2005 08:00 PM

I learnt this song this sameway last night from the live video from www.1065.com I was going to post the tab today, but it looks like you beat me to it lol.

Laidher All,
Quinton

+2 reply
vlp_dope 30 Feb 04, 2006 03:13 PM

it's drop c.

0 reply
guitarsuperman2 31 Mar 13, 2007 08:55 AM

yea this is the most correct tab i seen.....nice job. 5 stars

guest
Wanna post a correction for this tab? Suggest correction