Oops, an error
Loading. Please wait.

Dead Skin Tab

version 1
version 1

Intro

Whole song

Interactive

9,360 views 1 this week
3 commentsread comments
1 2 3 4 5
x 11
add to favorites
launch autoscroll
font size
0
reset
how to read this tab
guitar tuner
×
Best way to learn
"Dead Skin"
Autoscroll
slow
fast
+/-
esc
set tempo
stop
Author
*droped D tuning

e-----------------------------------------------------|
b------------------------------3---5---3--------------|
g------------------3----------------------------------|
d------2/4--0---------4------4------------------------|
a----0----------4----------2--------------------------|
D--0----------4---------------------------------------|

e------------------------------------------------------|
b------------------------------3--2--3-----------------|
g------------------3-------------------2---------------|
d------2/4--0---------4------4-------------------------|
a----0----------4----------2---------------------------|
D--0----------4----------------------------------------|

e-----------------------------------------------------|
b-----------------------------3-----------------------|
g------------------3----------------------------------|
d------2/4--0--------4------4-----5--4----------------|
a----0----------4---------2---------------------------|
D--0----------4---------------------------------------|

Here is the corrected version of this song. Enjoy! it is a very fun song to play
Suggest correction
comments
print report bad tab
3 comments total.
-1 reply
dixielicious 10 Jul 21, 2005 08:00 PM

*it should be played this way* you only missed 2.. i fexed it!

e-----------------------------------------------------|
b------------------------------3---5---3--------------|
g---------------------3-------------------------------|
d------2/4--0------4---------4------------------------|
a----0----------4----------2--------------------------|
D--0----------4---------------------------------------|

0 reply
burns86 51 Oct 03, 2007 02:58 PM

You only have three measures tabbed out, the fourth one is
e----------------------------------0~------------------|
b------------------------------3----------------------|
g---------------------3-------------------------------|
d------2/4--0------4---------4------------------------|
a----0----------4----------2--------------------------|
D--0----------4---------------------------------------|

0 reply
death eater 87 May 13, 2009 04:29 AM

You mean the Correct Version of the intro? =) lol. Good 5*

guest
You may want to rate the tab now too:
select rating
Wanna post a correction for this tab? Suggest correction