Oops, an error
Loading. Please wait.

Dead Skin Tab

version 1
version 1

Intro

Whole song

Interactive

11,344 views 18 this week
1 commentread comment
1 2 3 4 5
worth learning
x 3
add to favorites
launch autoscroll
font size
0
reset
how to read this tab
guitar tuner
Tab Pro tools
  • play this tab
  • loop segment
  • change instrument
  • show fretboard
  • metronome
Autoscroll
slow
fast
+/-
esc
set tempo
stop
Contributor
-------------------------------------------------------------------------------
                             Dead Skin - Crossfade
-------------------------------------------------------------------------------
Tabbed by:Gambler82
Email:degrees82@hotmail.com

Tuning:Drop D

Intro:1x with Flanger
e|-------------------------0-------------------------------------------------|
B|-----------------------3---3-------------------------3-2-3-----------------|
G|---------------2-----------------------------2-------------2---------------|
D|-----2h4---------------------------2h4-------------------------------------|
A|---0-----0---0---4---0-------0---0-----0---0---4---0-----------------------|
D|-0---------0-------0-----------0---------0-------0-------------------------|

e|----------------------------------------------------------0----------------|
B|--------------------------3-----------------------------3------------------|
G|------------------2---------0-------------------2--------------------------|
D|-------2h4--------------------4-------2h4----------------------------------|
A|-0---0-----0---0----4---0-------0---0-----0---0---4---0--------------------|
D|---0---------0--------0-----------0---------0-------0----------------------|

Verse1:
e|-------------------------0-----------------------------0-------------------|
B|-----------------------3---3-------------------------3---3-----------------|
G|---------------2-----------------------------2-----------------------------|
D|-----2h4---------------------------2h4-------------------------------------|
A|---0-----0---0---4---0-------0---0-----0---0---4---0-----------------------|
D|-0---------0-------0-----------0---------0-------0-------------------------|
  [       Play this once     ][      Play this 6 times      ]

End Verse1 with:
e|---------------------------0-----------------------------------------------|
B|-------------------------3-------------------------------------------------|
G|-----------------2---------------------------------------------------------|
D|-------2h4-----------------------------------------------------------------|
A|-0---0-----0---0---4---0---------------------------------------------------|
D|---0---------0-------0-----------------------------------------------------|

Chorus:2x with Distortion 
e|---------------------------------------------------------------------------|
B|---------------------------------------------------------------------------|
G|----------10-10-10----------------------------10-10-10----4-4-4-4----------|
D|-9-9-9-----8--8--8----12-12-12-12----9-9-9-----8--8--8----2-2-2-2----------|
A|-9-9-9-----8--8--8----12-12-12-12----9-9-9-----8--8--8----2-2-2-2----------|
D|-9-9-9----------------12-12-12-12----9-9-9---------------------------------|


Verse2:
e|-------------------------0-----------------------------0-------------------|
B|-----------------------3---3-------------------------3---3-----------------|
G|---------------2-----------------------------2-----------------------------|
D|-----2h4---------------------------2h4-------------------------------------|
A|---0-----0---0---4---0-------0---0-----0---0---4---0-----------------------|
D|-0---------0-------0-----------0---------0-------0-------------------------|
  [       Play this once     ][      Play this 6 times      ]

End Verse2 with:
e|---------------------------0-----------------------------------------------|
B|-------------------------3-------------------------------------------------|
G|-----------------2---------------------------------------------------------|
D|-------2h4-----------------------------------------------------------------|
A|-0---0-----0---0---4---0---------------------------------------------------|
D|---0---------0-------0-----------------------------------------------------|

Play chorus 2x

Bridge: 1x
e|-------------------------------------------------------0-------------------|
B|-----------------------3-----------------------------3---------------------|
G|---------------2---------0-------------------2-----------------------------|
D|-----2h4-------------------4-------2h4-------------------------------------|
A|---0-----0---0---4---0-------0---0-----0---0---4---0-----------------------|
D|-0---------0-------0-----------0---------0-------0-------------------------|

Solo: with Distortion(the end is hard to hear.  I did my best) 
e|---------------------------------------------------------------------------|
B|-6h7-7-7-7-7-7-7-7-6p5-6h7-7-7-7-7-7-7-7-6p5-6h7-7-7-7-7-7-7-7-6p5-6h7-7---|
G|---------------------------------------------------------------------------|
D|---------------------------------------------------------------------------|
A|---------------------------------------------------------------------------|
D|---------------------------------------------------------------------------|

solo cont.
e|---------------------------14-14-12-12-14-14-17-14-12h14-14-14-15-17-15----|
B|-7-7-7-7-7-7-6p5-6h7-7-----------------------------------------------------|
G|---------------------------------------------------------------------------|
D|---------------------------------------------------------------------------|
A|---------------------------------------------------------------------------|
D|---------------------------------------------------------------------------|

solo cont.
e|-14-14-12h14-15-17-15-14-12h14-15-17-15-14-14-12-11------------------------|
B|---------------------------------------------------------------------------|
G|---------------------------------------------------------------------------|
D|---------------------------------------------------------------------------|
A|---------------------------------------------------------------------------|
D|---------------------------------------------------------------------------|

Play chorus 4x

Finish with:
e|-------------------------------------------------------0-------------------|
B|-----------------------3-----------------------------3---------------------|
G|---------------2---------0-------------------2-----------------------------|
D|-----2h4-------------------4-------2h4-------------------------------------|
A|---0-----0---0---4---0-------0---0-----0---0---4---0-----------------------|
D|-0---------0-------0-----------0---------0-------0-------------------------|

This is a great song! This sounds perfect to me.

| /  slide up
| \  slide down
| h  hammer-on
| p  pull-off
| ~  vibrato
| +  harmonic
| x  Mute note
===============================================================================
comments
We did not receive enough feedback on this tab! Please rate:
print report bad tab
1 2 3 4 5
1 comment total.
0 reply
17thmoon wrote on July 22 2011, 06:50 pm

I don't understand this tab.

I want to post or [tab]
guest
You may want to rate the tab now too:
select rating
Please do not post tabs as comments. Select "correction" instead!