Oops, an error
Loading. Please wait.

Deep End Bass Tab

version 1
version 1

Whole song

Interactive

922 views 1 this week
no commentswrite comment
1 2 3 4 5
please rate
add to favorites
launch autoscroll
font size
0
reset
guitar tuner
Autoscroll
slow
fast
+/-
esc
set tempo
stop
Help us to improve Ultimate-Guitar.com Take our survey!
×
Author
Difficulty
intermediate
Crossfade - Deep end
Album: Crossfade

bass tab

by : doky 2007
taquilleros_de_sudamerica_maroyu_el_grupo_tropical_del_momento@hotmail.com

5-stringed bass
G D A E B

   INTRO
G-|--------|
D-|--------|
A-|--------|
E-|-0/10\0-|
B-|--------|
                                                                              

   VERSO
G-|-------------------------|-----------|-------------------------|
D-|-------------------------|-----------|-------------------------|
A-|-----------------3h6-4---|-----------|-----------------3h5-4---|
E-|-7-------3---------------|-----------|---------3---------------|
B-|-----5-------3-----------|-----------|-0---5-------3-----------|
                              variacion                                        

G-|-----------------|-----------|-----------------------|
D-|-----------------|-----------|-----------------------|
A-|-----------------|-----------|-----------------------|
E-|-7-------3---5---|-----------|-7-------3-------------|
B-|-----5-----------|-----------|-----5-------3---3h4-3-|
                      variacion                                                

   CORO
G-|-----------------|-----------------|---------|
D-|-----------------|-----------------|---------|
A-|-----------------|-----------------|---------|
E-|-----3-----------|-5h7-----2h3-----|---------|
B-|-0-0-----3-3-1---|-----5-------1---|-1---1---|
                                                                              

   MIDDLE
G-|---------------------------|------------------------------------|
D-|---------------------------|------------------------------------|
A-|-9----9----9----9----------|-9----9----9----9-------------------|
E-|---77---77---77---77-00-33-|---77---77---77---77-333333-0-0-0-0-|
B-|---------------------------|------------------------------------|
                                                                              
Mando salutaciones a La Liz Loayza de QB 2004 que me acuerdo que tocaba
el arpa dulce, violin tipo good charlotte y el bombo y creo que ha salido
pues jefe de bombo en la banda pues.

doky2007
Suggest correction
Give kudos to tab author, rate the tab!
1 2 3 4 5
comments
print report bad tab
guest
You may want to rate the tab now too:
select rating
Please do not post tabs as comments. Select "correction" instead!